Oops, an error
Loading. Please wait.

Eclipsed tab

version 1
version 1

Whole song

Interactive

by Sylosis
3,662 views 9 this week
no commentswrite comment
1 2 3 4 5
x 5
add to favorites
×
Save as Personal and add changes to this tab that will be seen only by you. Learn more ›
×
You can save this tab as Personal to edit and correct it or add notes. All changes will be seen only by you. Learn more »
launch autoscroll
font size
0
reset
how to read this tab
guitar tuner
edit
Autoscroll
slow
fast
+/-
esc
set tempo
stop
Author
Difficulty
Band:   Sylosis
Song:   Eclipsed
Album:  Edge of The Earth (2011)
Tuning: E Standard (E, A, D, G, B, E)

Well, this song is amazing, not long started listening to Edge of The Earth.
When I first heard this song and heard they play in E standard, at first I
Didn't believe it, but after days of trying to figure this song out and watching
Interviews, I found it to be true... They don't like drop tuning, they want
Nothing to be fancy, just simlple and epic!

Some of the chords are a bit strange. Playing them with out distortion makes
Them sound incorrect but I assure you they are the right chords. If you watch
This Video you'll see that Josh plays the chords below.

http://www.youtube.com/watch?v=brTCBYuIPU8&feature=related

You can also see a little bit of how he plays the solo at the end of this video

http://www.youtube.com/watch?v=zHBYuj9IBMs


Any way, beautiful solo tabbed!
Enjoy, please comment or correct and please, please rate :)


Guitar 1:        Josh Middleton
Guitar 2:        Alex Bailey
Guitar 3:        Josh Middleton (Harmonies)

Tabbing Legend
Hammer on:          h
Pull off:           p
Slide up:           /
Slide down:         \
Whammy Bar:         WB
Vibrato:            ~~~
Whammy Bar Vibrato: WB~~~
Bend:               BU(?)
Pinch Harmonic:     PH
Trill:              tr
Tremelo Pick:       Tr---
Tapped Note:        T


____________________________________________________________________________

Intro
Guitar 1
|-----------------|-----------------|-----------------|-----------------|
|-----------------|-----------------|-----------------|-----------------|
|-----------------|-----------------|-----------------|-----------------|
|-3---------------|-2---------------|-3---------------|-2-----8-4---8---|
|-1---------------|-2---------------|-1---------------|-2-----6-4---6---|
|-1---------------|-0---------------|-1---------------|-0-----6-2---6---|

Guitar 2
|-----------------|-----------------|-----------------|-----------------|
|-----------------|-----------------|-----------------|-----------------|
|-----------------|-----------------|-----------------|------/8-----8---|
|-----------------|-------6-4---6---|-----------------|-6-------8-------|
|/8---6-----8-6-8-|-7---------------|/8---6-----8-6-8-|-----------------|
|-------6---------|-----------------|-------6---------|-----------------|
|
|Guitar 3
|------------------|-----------------|------------------|------/11----11---|
|------------------|-------9-7---9---|------------------|-9--------11------|
|/10--8----10-8-10-|-9---------------|/10--8----10-8-10-|------------------|
|-------8----------|-----------------|-------8----------|------------------|
|------------------|-----------------|------------------|------------------|
|------------------|-----------------|------------------|------------------|

Guitar 1
|-----------------|-----------------|-----------------|-----------------|
|-----------------|-----------------|-----------------|-----------------|
|-----------------|-----------------|-----------------|-----------------|
|-3---------------|-2---------------|-3---------------|-2---------------|
|-1---------------|-2---------------|-1---------------|-2---------------|
|-1---------------|-0-----000-0-000-|-1---------------|-0---------------|

Guitar 2
|-----------------|-----------------|-----------------|-----------------|
|-----------------|-----------------|-----------------|-----------------|
|-----------------|-----------------|-----------------|-----------------|
|-----------------|-------6-4---6---|-----------------|-6---8-----------|
|/8---6-----8-6-8-|-7---------------|/8---6-----8-6-8-|---------9-------|
|-------6---------|-----------------|-------6---------|-----------------|
|
|Guitar 3
|------------------|-----------------|------------------|------------------|
|------------------|-------9-7---9---|------------------|-9---11-----------|
|/10--8----10-8-10-|-9---------------|/10--8----10-8-10-|----------11------|
|-------8----------|-----------------|-------8----------|------------------|
|------------------|-----------------|------------------|------------------|
|------------------|-----------------|------------------|------------------|

____________________________________________________________________________


Verse 1
Both guitar
|---------------------------------|---------------------------------|
|---------------------------------|---------------------------------|
|---------------------------------|---------------------------------|
|---------------------------------|---------------------------------|
|-9\8---9\8-------9\8---9\8-------|-9\8---9\8-------9\8---9\8-------|
|-7\6-0-7\6-0-0-0-7\6-0-7\6-0-0-0-|-7\6-0-7\6-0-0-0-7\6-0-7\6-0-0-0-|

____________________________________________________________________________


Bridge
Both guitars
|---------------------------------|---------------------------------|
|---------------------------------|---------------------------------|
|---------------------------------|---------------------------------|
|---------------------------------|---------------------------------|
|---------------------------------|---------------------------------|
|-0-0-0-0-0-0-0-0-0-0-0-0-0-0-0-0-|-0-0-0-0-0-0-0-0-0-0-0-0-6-6-6-6-|

____________________________________________________________________________


Verse 2
Both guitars
|---------------------------------|-----------------------------------|
|---------------------------------|-----------------------------------|
|---------------------------------|-----------------------------------|
|---------------------------------|------------------8h9---8-------11-|
|-----6---8---9-----6---8---9---8-|-----7---9---11-------------9------|
|-6-6---6---6---6-6---6---6---6---|-0-0---0---0----0-----0---0---0----|

|---------------------------------|----------------------------------|
|---------------------------------|----------------------------------|
|---------------------------------|----------------------------------|
|---------------------------------|------------------8tr9-----8tr9---|
|-----6---8---9-----6---8---9---8-|-----7---9---11-------------------|
|-6-6---6---6---6-6---6---6---6---|-0-0---0---0----0------0-0--------|

____________________________________________________________________________


Verse 3
Both guitars
|---------------------------------|---------------------------------------|
|---------------------------------|---------------------------------------|
|---------------------------------|---------------------------------------|
|---------------------------------|---------------------------------------|
|-----8-9-8-------8-9-8-------8-9-|------11-12-11-------------7-8-7-------|
|-6-9-------9-6-9-------9-6-9-----|-9-12----------12-9-12-5-8-------8-5-8-|

|---------------------------------|---------------------------------------|
|---------------------------------|---------------------------------------|
|---------------------------------|---------------------------------------|
|---------------------------------|---------------------------------------|
|-----8-9-8-------8-9-8-------8-9-|------11-12-11-------------7-8-7-------|
|-6-9-------9-6-9-------9-6-9-----|-9-12----------12-9-12-5-8-------8-5-8-|

Guitar 1
|---------------------------------|---------------------------------------|
|---------------------------------|---------------------------------------|
|---------------------------------|---------------------------------------|
|---------------------------------|---------------------------------------|
|-----8-9-8-----------8-9-8-------|------11-12-11-------------7-8-7-------|
|-6-9-------9-6-9-6-9-------9-6-9-|-9-12----------12-9-12-5-8-------8-5-8-|
|
|Guitar 2
|---------------------------------|---------------------------------|
|---------------------------------|---------------------------------|
|---------------------------------|---------------------------------|
|-3-------------------------------|-6---------------2---------------|
|-1-------------------------------|-4---------------0---------------|
|-1-------------------------------|-4---------------0---------------|

Guitar 1
|---------------------------------|---------------------------------------|
|---------------------------------|---------------------------------------|
|---------------------------------|---------------------------------------|
|---------------------------------|---------------------------------------|
|-----8-9-8-----------8-9-8-------|------11-12-11-------------7-8-7-------|
|-6-9-------9-6-9-6-9-------9-6-9-|-9-12----------12-9-12-5-8-------8-5-8-|
|
|Guitar 2
|---------------------------------|---------------------------------|
|---------------------------------|---------------------------------|
|---------------------------------|---------------------------------|
|-3-------------------------------|-6---------------2---------------|
|-1-------------------------------|-4---------------0---------------|
|-1-----1-----1-----1-----1---1---|-4---------------0---------------|

____________________________________________________________________________


Verse 4
Both guitars
|---------------------------------|---------------------------------|
|---------------------------------|---------------------------------|
|---------------------------------|---------------------------------|
|---------------------------------|---------------------------------|
|-8h9---8p6-----------------------|-8h9---8p6-----------8-9-8-------|
|-----6-----6-7p6-6-6-6-6-6-6-6-6-|-----6-----6-7p6-6-9-------9-6-9-|

|---------------------------------|---------------------------------|
|---------------------------------|---------------------------------|
|---------------------------------|---------------------------------|
|---------------------------------|-----6-------8-------9-------8---|
|-8h9---8p6-----------------------|-----7-------7-------7-------7---|
|-----6-----6-7p6-6-6-6-6-6-6-6-6-|-0-0-----0-0-----0-0-----0-0-----|

|---------------------------------|---------------------------------|
|---------------------------------|---------------------------------|
|---------------------------------|---------------------------------|
|---------------------------------|---------------------------------|
|-8h9---8p6-----------------------|-8h9---8p6-----------8-9-8-------|
|-----6-----6-7p6-6-6-6-6-6-6-6-6-|-----6-----6-7p6-6-9-------9-6-9-|

|---------------------------------|---------------------------------|
|---------------------------------|---------------------------------|
|---------------------------------|---------------------------------|
|---------------------------------|-----6-------8-------------------|
|-8h9---8p6-----------------------|-----7-------7---9\8---9\8---9---|
|-----6-----6-7p6-6-6-6-6-6-6-6-6-|-0-0-----0-0-----7\6-0-7\6-0-7---|

____________________________________________________________________________


Solo 1
Guitar 2 (Rhythm)
|---------------------------------|-----------------------------------|
|---------------------------------|-----------------------------------|
|---------------------------------|-----------------------------------|
|---------------------------------|------------------8h9---8-------11-|
|-----6---8---9-----6---8---9---8-|-----7---9---11-------------9------|
|-6-6---6---6---6-6---6---6---6---|-0-0---0---0----0-----0---0---0----|

|---------------------------------|----------------------------------|
|---------------------------------|----------------------------------|
|---------------------------------|----------------------------------|
|---------------------------------|------------------8tr9-----8tr9---|
|-----6---8---9-----6---8---9---8-|-----7---9---11-------------------|
|-6-6---6---6---6-6---6---6---6---|-0-0---0---0----0------0-0--------|

Guitar 1 (Lead)
|---------------------------------|-----------------------------------|
|---------------------------------|-----------------------------------|
|---------------------------------|-----------------------------------|
|---------------------------------|------------------8h9---8-------11-|
|-----6---8---9-----6---8---9---8-|-----7---9---11-------------9------|
|-6-6---6---6---6-6---6---6---6---|-0-0---0---0----0-----0---0---0----|

Guitar 1
|-17BU(19)PH-WB~~~~~~~~~~~~~~~~~~~~~~~~~~~~~~~~~~~~~~~~~~~~~~~~-14-16-|
|---------------------------------------------------------------------|
|---------------------------------------------------------------------|
|---------------------------------------------------------------------|
|---------------------------------------------------------------------|
|---------------------------------------------------------------------|
|
|Guitar 3
|-------------------------------------------------------------------|
|---------------------------------------------------------------7-9-|
|-------------------------------------------------------------------|
|-------------------------------------------------------------------|
|-------------------------------------------------------------------|
|-------------------------------------------------------------------|

Guitar 1
|-18-16-14-------------------------------------------------------------|
|----------17-16-14-16-17-16-14----------------------------------------|
|-------------------------------16-15-13-15-16-15-13-------------------|
|----------------------------------------------------16-14-13----13~~~-|
|-------------------------------------------------------------16-------|
|----------------------------------------------------------------------|
|
|Guitar 3
|-------------------------------------------------|
|-11-9-7------------------------------------------|
|--------9-8-6-8-9-8-6----------------------------|
|----------------------9-8-6-8-9-8-6--------------|
|------------------------------------9-7-6---6~~~-|
|------------------------------------------9------|

____________________________________________________________________________


Pre verse (Kinda like the intro but only half of it)
Guitar 1
|-----------------|-----------------|-----------------|-----------------|
|-----------------|-----------------|-----------------|-----------------|
|-----------------|-----------------|-----------------|-----------------|
|-3---------------|-2---------------|-3---------------|-2-----8-4---8---|
|-1---------------|-2---------------|-1---------------|-2-----6-4---6---|
|-1---------------|-0---------------|-1---------------|-0-----6-2---6---|

Guitar 2
  Tr-------------------------------------------------
|-----------------|-----------------|-----------------|-----------------|
|-----------------|-----------------|-----------------|-----------------|
|-----------------|-----------------|-----------------|------/8-----8---|
|-----------------|-------6-4---6---|-----------------|-6-------8-------|
|-8---6-----8-6-8-|-7---------------|-8---6-----8-6-8-|-----------------|
|-------6---------|-----------------|-------6---------|-----------------|

____________________________________________________________________________


Repeat Verse 4


Repeat Intro

____________________________________________________________________________


Bridge
Both guitars
|---------------------------------|---------------------------------|
|---------------------------------|---------------------------------|
|---------------------------------|---------------------------------|
|---------------------------------|-----6-------8-------9-------8---|
|-9\8-9\8-------------------------|-----7-------7-------7-------7---|
|-7\6-7\6-6-66666-66666-66666-6-6-|-0-0-----0-0-----0-0-----0-0-----|

|---------------------------------|---------------------------------|
|---------------------------------|---------------------------------|
|---------------------------------|---------------------------------|
|---------------------------------|-----6-------8-------9-----------|
|-9\8-9\8-------------------------|-----7-------7-------7---2-2-----|
|-7\6-7\6-6-66666-66666-66666-6-6-|-0-0-----0-0-----0-0-----0-0-----|

|---------------------------------|---------------------------------|
|---------------------------------|---------------------------------|
|---------------------------------|---------------------------------|
|---------------------------------|-----6-------8-------9-------8---|
|---------------------------------|-----7-------7-------7-------7---|
|---------6-66666-66666-66666-6-6-|-0-0-----0-0-----0-0-----0-0-----|

|---------------------------------|---------------------------------|
|---------------------------------|---------------------------------|
|---------------------------------|---------------------------------|
|---------------------------------|-----6-------8-------------------|
|-9\8-9\8-------------------------|-----7-------7---9\8---9\8---9---|
|-7\6-7\6-6-66666-66666-66666-6-6-|-0-0-----0-0-----7\6-0-7\6-0-7---|

____________________________________________________________________________


Solo 2
Guitar 2 (Rhythm)
|-----------------|-----------------|-----------------|-----------------|
|-----------------|-----------------|-----------------|-----------------|
|-----------------|-----------------|-----------------|-----------------|
|-----------------|-----------------|-----------------|---------8-------|
|-8---------------|-4---------------|-8-----------9---|-4-------6-------|
|-6---------------|-2---------------|-6-----------7---|-2-------6-------|

|-----------------|-----------------|-----------------|-------------------------|
|-----------------|-----------------|-----------------|-------------------------|
|-----------------|-----------------|-----------------|-------------------------|
|-----------------|---------8-------|-----------------|-8-------4---------------|
|-8----------8-9--|-4-------6-------|-9-------4---4---|-6-------2---------------|
|-6----------6-7--|-2-------6-------|-7-------2---1---|-6-------2---------------|

Guitar 1 (Lead)
|----------------------------------------|----------------------------------|
|------------------------------9~~~~-----|-6~~~~~~~~~~-------------------11-|
|-13\10-10\8-8\6-6~~~~~~~~---------------|--------------/6-5~~~~~~-10-13----|
|--------------------------6/8-------6/8-|----------------------------------|
|----------------------------------------|--------------/4-3~~~~~~----------|
|----------------------------------------|----------------------------------|

|---------------------------------------------------|---------------------|
|-13-BU-(14)(13)------------------------14----16----|-16p14----14~~~~~~~~-|
|----------------13--/15------------/13----13----13-|-------13~~~~~~~~~~~-|
|------------------------11~~~~~~~~-----------------|---------------------|
|---------------------------------------------------|---------------------|
|---------------------------------------------------|---------------------|

|-------13~~~~~~~~~~-|
|----11~~~~~~~~~~~~~-|
|-13~~~~~~~~~~~~~~~~-|
|--------------------|
|--------------------|
|--------------------|

|--------------------------16p13---------------------------------|
|--------------------------------16p14-16/18--------------16~~~~-|
|---5h6-----10p8p6---13h15-------------------15~~~~-13h15~~~~~~~-|
|-------6h8--------8---------------------------------------------|
|----------------------------------------------------------------|
|----------------------------------------------------------------|

                            T                          T
|------------------9h11h13-14p13p11p9----------------------------|
|----------------------------------------------------------------|
|---------10h11h13---------------------13p11p10h11h13-20~~~~~~~~-|
|----------------------------------------------------------------|
|-9h11h13--------------------------------------------------------|
|----------------------------------------------------------------|

              T                           T
|---------16-20/21\20-16--------------16-20p16~~~~~~~~~~-|
|-------18--------------18----------18-------------------|
|-----17------------------17------17---------------------|
|---18----------------------18--18-----------------------|
|-20--------------------------20-------------------------|
|--------------------------------------------------------|

|-14---18---19-19\14---16---18-|---------------------------|
|------------------------------|-16-----\14-14-----\11-----|
|------------------------------|---------------------------|
|------------------------------|---------------------------|
|------------------------------|---------------------------|
|------------------------------|---------------------------|

|-13BU(14)(13)-----14-14\13---------------|-11~~~~~~~~~~~~-|
|-----------------------------14----------|----------------|
|--------------------------------13\10h11-|----------------|
|-----------------------------------------|----------------|
|-----------------------------------------|----------------|
|-----------------------------------------|----------------|

____________________________________________________________________________


Chorus
Both guitars
||---------------------------------|---------------------------------|
|o---------------------------------|---------------------------------|
||---------------------------------|---------------------------------|
||-3-----------------------4-------|-----------------8---------------|
|o-1-----------------------2-------|-4---------------6---------------|
||-1-----------------------2-------|-2---------------6---------------|

|---------------------------------|---------------------------------|
|---------------------------------|---------------------------------|
|---------------------------------|---------------------------------|
|-3-----------------------4-------|-----------------8---------------|
|-1-----------------------2-------|-4---------------6---------------|
|-1-----------------------2-------|-2---------------6---------------|

|---------------------------------||
|---------------------------------o|
|---------------------------------||
|-4-------------------------------||
|-2---------------4---------------o|
|-2---------------2---------------||

____________________________________________________________________________


Verse 5
Guitar 1
|-----------------|-----------------|-----------------|-----------------|
|-----------------|-----------------|-----------------|-----------------|
|-----------------|-----------------|-----------------|-----------------|
|-3---------------|-2---------------|-3---------------|-2---------------|
|-1---------------|-2---------------|-1---------------|-2---------------|
|-1---------------|-0---------------|-1---------------|-0---------------|
|
|Guitar 2
|-----------------|-----------------|-----------------|-----------------|
|-----------------|-----------------|-----------------|-----------------|
|-----------------|-----------------|-----------------|-----------------|
|-----------------|-------6-4---6---|-----------------|-------6-4---6---|
|/8---6-----8-6-8-|-7---------------|/8---6-----8-6-8-|-7---------------|
|-------6---------|-----------------|-------6---------|-----------------|
|
|Guitar 3
|------------------|-----------------|------------------|-----------------|
|------------------|-------9-7---9---|------------------|-------9-7---9---|
|/10--8----10-8-10-|-9---------------|/10--8----10-8-10-|-9---------------|
|-------8----------|-----------------|-------8----------|-----------------|
|------------------|-----------------|------------------|-----------------|
|------------------|-----------------|------------------|-----------------|

Guitar 1
|-----------------|-----------------|-----------------|-----------------|
|-----------------|-----------------|-----------------|-----------------|
|-----------------|-----------------|-----------------|-----------------|
|-3---------------|-2---------------|-3---------------|-2---------------|
|-1---------------|-2---------------|-1---------------|-2---------------|
|-1---------------|-0---------------|-1---------------|-0---------------|
|
|Guitar 2
|-----------------|-----------------|-----------------|-----------------|
|-----------------|-----------------|-----------------|-----------------|
|-----------------|-----------------|-----------------|------/8-----8---|
|-----------------|-------6-4---6---|-----------------|-6-------8-------|
|/8---6-----8-6-8-|-7---------------|/8---6-----8-6-8-|-----------------|
|-------6---------|-----------------|-------6---------|-----------------|
|
|Guitar 3
|------------------|-----------------|------------------|------/11----11---|
|------------------|-------9-7---9---|------------------|-9--------11------|
|/10--8----10-8-10-|-9---------------|/10--8----10-8-10-|------------------|
|-------8----------|-----------------|-------8----------|------------------|
|------------------|-----------------|------------------|------------------|
|------------------|-----------------|------------------|------------------|

____________________________________________________________________________


Outro
Guitar 1
||---------------------------------|---------------------------------||
|o---------------------------------|---------------------------------o|
||---------------------------------|---------------------------------||
||-3---3-3---3---3-3---3-3---3---3-|-2---2-2---2---2-2---2-2---2---2-||
|o-1---1-1---1---1-1---1-1---1---1-|-2---2-2---2---2-2---2-2---2---2-o|
||-1---1-1---1---1-1---1-1---1---1-|-0---0-0---0---0-0---0-0---0---0-||
|
|Guitar 2
|-----------------|-----------------|-----------------|-----------------|
|-----------------|-----------------|-----------------|-----------------|
|-----------------|-----------------|-----------------|-----------------|
|-----------------|-------6-4---6---|-----------------|-------6-4---6---|
|/8---6-----8-6-8-|-7---------------|/8---6-----8-6-8-|-7---------------|
|-------6---------|-----------------|-------6---------|-----------------|
|
|Guitar 3
|------------------|-----------------|------------------|-----------------|
|------------------|-------9-7---9---|------------------|-------9-7---9---|
|/10--8----10-8-10-|-9---------------|/10--8----10-8-10-|-9---------------|
|-------8----------|-----------------|-------8----------|-----------------|
|------------------|-----------------|------------------|-----------------|
|------------------|-----------------|------------------|-----------------|

||---------------------------------|---------------------------------||
|o---------------------------------|---------------------------------o|
||---------------------------------|---------------------------------||
||-3---3-3---3---3-3---3-3---3---3-|-2---2-2---2---2-2---2-2---2---2-||
|o-1---1-1---1---1-1---1-1---1---1-|-2---2-2---2---2-2---2-2---2---2-o|
||-1---1-1---1---1-1---1-1---1---1-|-0---0-0---0---0-0---0-0---0---0-||
|
|Guitar 2
|-----------------|-----------------|-----------------|-----------------|
|-----------------|-----------------|-----------------|-----------------|
|-----------------|-----------------|-----------------|------/8-----8---|
|-----------------|-------6-4---6---|-----------------|-6-------8-------|
|/8---6-----8-6-8-|-7---------------|/8---6-----8-6-8-|-----------------|
|-------6---------|-----------------|-------6---------|-----------------|
|
|Guitar 3
|------------------|-----------------|------------------|------/11----11---|
|------------------|-------9-7---9---|------------------|-9--------11------|
|/10--8----10-8-10-|-9---------------|/10--8----10-8-10-|------------------|
|-------8----------|-----------------|-------8----------|------------------|
|------------------|-----------------|------------------|------------------|
|------------------|-----------------|------------------|------------------|

____________________________________________________________________________


That's all guys, please rate :)

            
            
Suggest correction
Creating personal tab
Creating personal tab
You can edit any tab online and save it as your Personal.

You can edit, replace or remove any tab part or add personal notes – all changes will be seen only by you.

Personal tabs can be accessed anytime from any device, even offline.
Learn more »
comments
print report bad tab
guest
You may want to rate the tab now too:
select rating
Wanna post a correction for this tab? Suggest correction