Oops, an error
Loading. Please wait.

From The Edge Of The Earth Tab

version 1
version 1

Intro

Interactive

910 views 3 this week
no commentswrite comment
1 2 3 4 5
please rate
add to favorites
launch autoscroll
font size
0
reset
how to read this tab
guitar tuner
Autoscroll
slow
fast
+/-
esc
set tempo
stop
Help us to improve Ultimate-Guitar.com Take our survey!
×
Author
Difficulty
novice
hOPE YOU LIKE IT :)

STANDARD TUNING :)

E|------------8-8--7---------|
B|-------8-8-----------------|
G|--------------------9------|
D|---------------------------|
A|---------------------------|
E|---------------------------|


E|------7------------------|
B|----------8--------------|
G|--------------9----------|
D|-------------------------|
A|-------------------------|
E|-------------------------|

E|---7----------------------|
B|--------------10----------|
G|----------9---------------|
D|--------------10----------|
A|----------9---------------|
E|--------------------------|

E|---------------8-8---7-7/5----|
B|----------8-8-----------------|
G|------------------------------|
D|------------------------------|
A|------------------------------|
E|------------------------------|


E|------------8-8--7---------|
B|-------8-8-----------------|
G|--------------------9------|
D|---------------------------|
A|---------------------------|
E|---------------------------|

E|------7------------------|
B|----------8--------------|
G|--------------9----------|
D|-------------------------|
A|-------------------------|
E|-------------------------|

E|---7----------------------|
B|--------------10----------|
G|----------9---------------|
D|--------------10----------|
A|----------9---------------|
E|--------------------------|

For any correction e-mail me at: fihad_snafy@yahoo.com
Suggest correction
Give kudos to tab author, rate the tab!
1 2 3 4 5
comments
print report bad tab
guest
You may want to rate the tab now too:
select rating
Please do not post tabs as comments. Select "correction" instead!