Oops, an error
Loading. Please wait.

Procession Tab

version 1
version 1

Whole song

Interactive

1,440 views 3 this week
no commentswrite comment
1 2 3 4 5
x 3
add to favorites
launch autoscroll
font size
0
reset
how to read this tab
guitar tuner
Autoscroll
slow
fast
+/-
esc
set tempo
stop
Help us to improve Ultimate-Guitar.com Take our survey!
×
Author
Difficulty
intermediate
Band:  Sylosis
Song:  Procession
Album: Edge Of The Earth (2011)

I've not had time to tab recently so when I have the time I will
update this one with the rest of the song :)

Please rate :)

Guitar 1: Josh Middleton
Guitar 2: Alex Bailey

Intro
Guitar 1
(Strum this chord from the high E string first)
(drag the pick towards you)
|-0-|-----------------------------|---------------------------------|
|-0-|-----------------------------|---------------------------------|
|-0-|-----------------------------|---------------------------------|
|-2-|---------------------------4/|(5)------------------------------|
|-2-|---------------------------2/|(3)------------------------------|
|-0-V---------------------------2/|(3)------------------------------|

|---------------------------------|---------------------------------|
|-------------------------0-------|---------------------0-----------|
|-----4/5-0-----------------------|-----4/5-0-----------------------|
|---2-------------4---------------|---2-------------4---------------|
|---------------------------------|-------------------------2---3---|
|-0-------------------------------|-0-------------------------------|

Guitar 1
|---------------------------------|---------------------------------|
|-------------------------0-------|-----------------0---------------|
|-----4/5-0-----------------------|-----4/5-0-------x---------------|
|---2-------------4---------------|---2-------------4---------------|
|---------------------------------|-----------------2---------------|
|-0-------------------------------|-0---------------2---------------|

Guitar 2
|--------------------------------------/8-|
|-8-----10-------8-10-8-10BU(12)(10)------|
|-----------------------------------------|
|-----------------------------------------|
|-----------------------------------------|
|-----------------------------------------|

|-7-----8-----10---10---------------|
|-----------------------------------|
|-----------------------------------|
|-----------------------------------|
|-----------------------------------|
|-----------------------------------|

_______________________________________________________________________________________


Verse 1
Both guitars
||---------------------------------|---------------------------------||
|o---------------------------------|---------------------------------o|
||---------------------------------|---------------------------------||
||-------------------------4-------|-5-----------------------4-------||
|o-2-----------3-----------2---3---|-3-----------2-----------2---3---o|
||-0--00000000-1--00000000-----1---|----00000000-0--00000000-----1---||

_______________________________________________________________________________________


Verse 2
Guitar 1
|-------------------------------------------------|
|-------------------------15----------15----------|
|-16-12----12-16-12----12----12----12----12----12-|
|-------14----------14----------14----------14----|
|-------------------------------------------------|
|-------------------------------------------------|

Guitar 2
|---------------------------------|
|---------------------------------|
|---------------------------------|
|---------------------------------|
|-2-----------0-2-3---------------|
|-2-----------0-2-3---------------|

Guitar 1
|-------------------------------------------------|
|-------------------------15----------------------|
|-16-12----12-16-12----12----12----12-14----------|
|-------14----------14----------14----------------|
|-------------------------------------------------|
|-------------------------------------------------|

Guitar 2
|---------------------------------|
|---------------------------------|
|---------------------------------|
|---------------------------------|
|-2-----------0-2-3-------5-------|
|-2-----------0-2-3-------5-------|

Guitar 1
|-------------------------------------------------|
|-------------------------15----------15----------|
|-16-12----12-16-12----12----12----12----12----12-|
|-------14----------14----------14----------14----|
|-------------------------------------------------|
|-------------------------------------------------|

Guitar 2
|---------------------------------|
|---------------------------------|
|---------------------------------|
|---------------------------------|
|-2-----------0-2-3---------------|
|-2-----------0-2-3---------------|

Guitar 1
|---------------------------------|
|---------------------------------|
|-16------------------------------|
|---------------------------------|
|-----------------0-2-3---2---5---|
|-----------------0-2-3---2---5---|

Guitar 2
|---------------------------------|
|---------------------------------|
|---------------------------------|
|---------------------------------|
|-2---------------0-2-3---2---5---|
|-2---------------0-2-3---2---5---|


I will tab the rest when I have the time and update it on this tab :)
Suggest correction
Give kudos to tab author, rate the tab!
1 2 3 4 5
comments
print report bad tab
guest
You may want to rate the tab now too:
select rating
Wanna post a correction for this tab? Suggest correction