Oops, an error
Loading. Please wait.

Tumbleweed bass

by Sylvia
34 views 1 this week
no commentswrite comment
1 2 3 4 5
3 more votes to show rating
add to favorites
×
Save as Personal and add changes to this tab that will be seen only by you. Learn more ›
×
You can save this tab as Personal to edit and correct it or add notes. All changes will be seen only by you. Learn more »
launch autoscroll
font size
0
reset
guitar tuner
edit
Autoscroll
slow
fast
+/-
esc
set tempo
stop
Tabbed by: 6METAL6BASSIST6
E-mail: petergriffinav@gmail.com

Tuning: EADG

G|----------------------------------------------------------------|
D|----------------------------------------------------------------|
A|--------------------------------------------------------6-------|
E|----------------------------------------------------------------|

G|----------------------------------------------------------------|
D|----------------------------------------------------------------|
A|----------------------------------------------------------------|
E|4---------------------------------------------------------------|

0:11

G|----------------------------------------------------------------|
D|6-----------\---3-----------3-------------------1---------------|
A|--------------------------------1-------------------------------|
E|----------------------------------------------------------------|

G|----------------------------------------------------------------|
D|6-----------6---3-------------------------------1---------------|
A|--------------------------------1-----------1-------------------|
E|----------------------------------------------------------------|

G|----------------------------------------------------------------|
D|6-----------6---3-----------------------------------------------|
A|--------------------------------1-----------1---1---------------|
E|----------------------------------------------------------------|

G|----------------------------------------------------------------|
D|1---------------1---------------1-----------1---2---------------|
A|----------------------------------------------------------------|
E|----------------------------------------------------------------|

0:31

G|----------------------------------------------------------------|
D|3-----------3---3-----------------------------------------------|
A|--------------------------------3-----------3---3---------------|
E|----------------------------------------------------------------|

G|----------------------------------------------------------------|
D|----------------------------------------------------------------|
A|4-----------4---4---------------4-----------4---4---------------|
E|----------------------------------------------------------------|

G|----------------------------------------------------------------|
D|6-----------6---3-------------------------------1-----------1---|
A|--------------------------------1-----------1-------------------|
E|----------------------------------------------------------------|

G|----------------------------------------------------------------|
D|------------------------------------------------6-------5-------|
A|4-----------4---3-------1-------------------6-------------------|
E|--------------------------------4-------------------------------|

0:51

G|----------------------------------------------------------------|
D|3-----------3---3-----------3-----------------------------------|
A|--------------------------------4-----------4---4-----------4---|
E|----------------------------------------------------------------|

G|----------------------------------------------------------------|
D|6-----------6-------------------6-----------6-----------5-------|
A|----------------6-----------6-------------------6---------------|
E|----------------------------------------------------------------|

G|----------------------------------------------------------------|
D|3-----------3---3-----------3-----------------------------------|
A|--------------------------------4-----------4---4-----------3---|
E|----------------------------------------------------------------|

G|--------------------------------|
D|--------------------------------|
A|1-----------1---1---------------|
E|--------------------------------|

G|----------------------------------------------------------------|
D|1-----------1---------------------------------------------------|
A|----------------4-----------4---3-----------3---1---------------|
E|----------------------------------------------------------------|

1:13

G|----------------------------------------------------------------|
D|------------------------------------------------1---------------| x2
A|--------------------------------1-----------1-------------------|
E|4-----------4---1-----------------------------------------------|

G|----------------------------------------------------------------|
D|----------------------------------------------------------------|
A|--------------------------------1-----------1---1---------------|
E|4-----------4---1-----------------------------------------------|

G|----------------------------------------------------------------|
D|1-----------1---1---------------1-----------1---2---------------|
A|----------------------------------------------------------------|
E|----------------------------------------------------------------|

1:33

G|----------------------------------------------------------------|
D|3-----------3---3-----------------------------------------------|
A|--------------------------------3-----------3---3-----------3---|
E|----------------------------------------------------------------|

G|----------------------------------------------------------------|
D|----------------------------------------------------------------|
A|4-----------4---4---------------4-----------4---4---------------|
E|----------------------------------------------------------------|

G|----------------------------------------------------------------|
D|6---------------3-----------3-------------------1---------------|
A|--------------------------------1-----------1-------------------|
E|----------------------------------------------------------------|

G|----------------------------------------------------------------|
D|------------------------------------------------6-------5-------|
A|4-----------4---3-------1-------------------6-------------------|
E|--------------------------------4-------------------------------|

1:53

G|----------------------------------------------------------------|
D|3-----------3---3-----------3-----------------------------------|
A|--------------------------------4-----------4---4-----------4---|
E|----------------------------------------------------------------|

G|----------------------------------------------------------------|
D|6-----------6-------------------6-----------6-----------5-------|
A|----------------6-----------6-------------------6---6-----------|
E|----------------------------------------------------------------|

G|----------------------------------------------------------------|
D|3-----------3---3-----------------------------------------------|
A|----------------------------6---4-----------4---4-----------3---|
E|----------------------------------------------------------------|

G|--------------------------------|
D|--------------------------------|
A|1-----------1---1---------------|
E|--------------------------------|

G|----------------------------------------------------------------|
D|1-----------1---------------------------------------------------|
A|----------------4-----------4---3-----------3---1---------------|
E|----------------------------------------------------------------|

2:15

G|----------------------------------------------------------------|
D|------------------------------------------------1---------------| x2
A|--------------------------------1-----------1-------------------|
E|4-----------4---1-----------------------------------------------|

G|----------------------------------------------------------------|
D|----------------------------------------------------------------|
A|--------------------------------1-----------1---1-----------1---|
E|4-----------4---1-----------------------------------------------|

G|----------------------------------------------------------------|
D|1---------------1---------------1-----------1---2---------------|
A|----------------------------1-----------------------------------|
E|----------------------------------------------------------------|

2:35

G|----------------------------------------------------------------|
D|3---------------3-------3---3-----------------------------------|
A|--------------------------------3-----------3---3-----------3---|
E|----------------------------------------------------------------|

G|----------------------------------------------------------------|
D|----------------------------------------------------------------|
A|4-----------4---4-----------4---4-----------4---4---------------|
E|----------------------------------------------------------------|

G|----------------------------------------------------------------|
D|6-----------6---3-------------------------------1-----------1---|
A|--------------------------------1-----------1-------------------|
E|----------------------------------------------------------------|

G|----------------------------------------------------------------|
D|----------------------------------------------------------------|
A|4-----------4---3-------1-----------------------------------6---|
E|--------------------------------4-----------4---4---------------|

G|------------------------------------------------------------|
D|6-----------5---3-----------3---------------------------1---|
A|--------------------------------1---------------------------|
E|------------------------------------------------------------|

            
            
Suggest correction
Creating personal tab
Creating personal tab
You can edit any tab online and save it as your Personal.

You can edit, replace or remove any tab part or add personal notes – all changes will be seen only by you.

Personal tabs can be accessed anytime from any device, even offline.
Learn more »
Give kudos to tab author, rate the tab!
1 2 3 4 5
comments
print report bad tab
guest
You may want to rate the tab now too:
select rating
Wanna post a correction for this tab? Suggest correction