Oops, an error
Loading. Please wait.

Forever Young tab

by Symbol
22 views 1 this week
no commentswrite comment
1 2 3 4 5
3 more votes to show rating
add to favorites
×
Save as Personal and add changes to this tab that will be seen only by you. Learn more ›
×
You can save this tab as Personal to edit and correct it or add notes. All changes will be seen only by you. Learn more »
launch autoscroll
font size
0
reset
how to read this tab
guitar tuner
edit
Autoscroll
slow
fast
+/-
esc
set tempo
stop
STD TUNING, EADGBe


[Intro]

                                X2                                        after 2nd time
e |10-10-11-11~~-11-11-11/15-15~~-15-15-15/16-15~-13~~-13-13-15-13-11~~-|----------------|
B |---------------------------------------------------------------------|15-15-16-16~~~~-|
G |---------------------------------------------------------------------|----------------|
D |---------------------------------------------------------------------|----------------|
A |---------------------------------------------------------------------|----------------|
E |---------------------------------------------------------------------|----------------|


[Verse 1]

e |------------------|----------------------|/16p15-------|
B |------------------|----------------------|-------16~~~-|
G |15b17r15b17r15~~~-|12b13r12b13p10~-------|-------------|
D |------------------|----------------13~~~-|-------------|
A |------------------|----------------------|-------------|
E |------------------|----------------------|-------------|
                     Please don't ever go ...      
  Ready for the show ...                    Love me too ...


[Chorus] Same as intro

                                 X2                                       after 2nd time
e |10-10-11-11~~-11-11-11/15-15~~-15-15-15/16-15~-13~~-13-13-15-13-11~~-|----------------|
B |---------------------------------------------------------------------|15-15-16-16~~~~-|
G |---------------------------------------------------------------------|----------------|
D |---------------------------------------------------------------------|----------------|
A |---------------------------------------------------------------------|----------------|
E |---------------------------------------------------------------------|----------------|


[Verse 2]

e |------------------|----------------------|/16p15-------|------------------------------------|
B |------------------|----------------------|-------16~~~-|------------------------------------|
G |15b17r15b17r15~~~-|12b13r12b13p10~-------|-------------|------------------------------------|
D |------------------|----------------13~~~-|-------------|------------------------------------|
A |------------------|----------------------|-------------|------------------------------------|
E |------------------|----------------------|-------------|/4~~ 4/6~~-6/8~~-8/6~~-/4~-/3~-/4~~-|
                     Jump in like a fool ...              All the time ....
  Bump into the groove ...                  So let it be ...


[Chorus]

                                 X2                                       after 2nd time
e |10-10-11-11~~-11-11-11/15-15~~-15-15-15/16-15~-13~~-13-13-15-13-11~~-|----------------|
B |---------------------------------------------------------------------|15-15-16-16~~~~-|
G |---------------------------------------------------------------------|----------------|
D |---------------------------------------------------------------------|----------------|
A |---------------------------------------------------------------------|----------------|
E |---------------------------------------------------------------------|----------------|


[Verse 3] Same as verse 1

e |------------------|----------------------|/16p15-------|
B |------------------|----------------------|-------16~~~-|
G |15b17r15b17r15~~~-|12b13r12b13p10~-------|-------------|
D |------------------|----------------13~~~-|-------------|
A |------------------|----------------------|-------------|
E |------------------|----------------------|-------------|
                     Please don't ever go ...      
  Ready for the show ...                    Love me too ...


[Chorus] 
                                                          

e |10-10-11-11~~-11-11-11/15-15~~-15-15-15/16-15~-13~~-13-13-15-13-11~~-11-10-11-|
B |------------------------------------------------------------------------------|
G |------------------------------------------------------------------------------|
D |------------------------------------------------------------------------------|
A |------------------------------------------------------------------------------|
E |------------------------------------------------------------------------------| 
  Forever young ... 2nd time only


[Solo]


e |--------------------------------------------------------------------------------------
B |------------------------------11-11/13-11~-15h16-15h16-16b18-16b18-16-15--------------
G |8/10~-8~~-10/12~~-10h12-10h12--------------------------------------------15b17-17~~/0-
D |--------------------------------------------------------------------------------------
A |--------------------------------------------------------------------------------------
E |--------------------------------------------------------------------------------------




e |-------18---------------------------15-16-15-------------------------------------------------
B |----16----18b20r18b20~~-20r18p16h18----------18-16b18-16-15-15h16----15----------------18-18-
G |/15---------------------------------------------------------------17----15-17-17-17-17-------
D |---------------------------------------------------------------------------------------------
A |---------------------------------------------------------------------------------------------
E |---------------------------------------------------------------------------------------------


e |15-16-16-15-16b18~~~-|
B |---------------------|
G |---------------------|
D |---------------------|
A |---------------------|
E |---------------------|

  

[Chorus]

e |10-10-11-11~~-11-11-11/15-15~~-15-15-15/16-15~-13~~-13-13-15-13-11~~-11-10-11-|
B |------------------------------------------------------------------------------|
G |------------------------------------------------------------------------------|
D |------------------------------------------------------------------------------|
A |------------------------------------------------------------------------------|
E |------------------------------------------------------------------------------|
  Forever young ...


[Outro]

e |------------18---------------------------15-16-15-------------------------------------------------
B |---------16----18b20r18b20~~-20r18p16h18----------18-16b18-16-15-15h16----15----------------18-18-
G |17~~-/15---------------------------------------------------------------17----15-17-17-17-17-------
D |--------------------------------------------------------------------------------------------------
A |--------------------------------------------------------------------------------------------------
E |--------------------------------------------------------------------------------------------------
  Forever, together ...

e| 15-16-16-15-16b18~~~-|
B| ---------------------|
G| ---------------------|
D| ---------------------|
A| ---------------------|
E| ---------------------|


e |10-10-11-11~~-11-11-11/15-15~~-15-15-15/16-15~-13~~-13-13-15-13-11~~-11-10-11-|
B |------------------------------------------------------------------------------|
G |------------------------------------------------------------------------------|
D |------------------------------------------------------------------------------|
A |------------------------------------------------------------------------------|
E |------------------------------------------------------------------------------|



************************************

| ~    Vibrato
| h    Hammer-on
| b    Bend
| p    Pull-off 
| ph   Pinch harmonic
| /    Slide up
| \    Slide down
| (#)X # fret mute

************************************

            
            
Suggest correction
Creating personal tab
Creating personal tab
You can edit any tab online and save it as your Personal.

You can edit, replace or remove any tab part or add personal notes – all changes will be seen only by you.

Personal tabs can be accessed anytime from any device, even offline.
Learn more »
Give kudos to tab author, rate the tab!
1 2 3 4 5
comments
print report bad tab
guest
You may want to rate the tab now too:
select rating
Wanna post a correction for this tab? Suggest correction