Oops, an error
Loading. Please wait.

Virus Tab

7 views 1 this week
no commentswrite comment
1 2 3 4 5
3 more votes to show rating
add to favorites
launch autoscroll
font size
0
reset
how to read this tab
guitar tuner
Autoscroll
slow
fast
+/-
esc
set tempo
stop
Help us to improve Ultimate-Guitar.com Take our survey!
×
Difficulty
Tuning
novice
D A D G B E
About this tab version
My song, Virus, is my favorite song from the album, Miscoded, I am releasing on January 1, 2017. Was this info helpful? Yes No
[Intro]     144BPM     4/4     eg.(0),(5),(12), Etc = Palm Muted

E------------------------------------------------------------------------------------------------------|
B------------------------------------------------------------------------------------------------------|
G------------------------------------------------------------------------------------------------------|
D-0-0--12-11--7-8--(0)--|--0--0--12-11--7-8--(0)--|--0--0--12-11--7-8--(0)--5-5--(0)--3-3--(0) Repeat--| x3
A------------------------------------------------------------------------------------------------------|
D------------------------------------------------------------------------------------------------------|
A------------------------------------------------------------------------------------------------------|

After two measures of the Mid-D intro

E------------------------------------------------------------------------------------------------------|
B------------------------------------------------------------------------------------------------------|
G------------------------------------------------------------------------------------------------------|
D------------------------------------------------------------------------------------------------------|
A------------------------------------------------------------------------------------------------------|
D-0-0--12-11--7-8--(0)--|--0--0--12-11--7-8--(0)--|--0--0--12-11--7-8--(0)--5-5--(0)--3-3--(0) Repeat--| x1
A------------------------------------------------------------------------------------------------------|

Main Riff #1

E---------------------------------------------------------------------------------------------|
B---------------------------------------------------------------------------------------------|
G---------------------------------------------------------------------------------------------|
D---------------------------------------------------------------------------------------------|
A-0--(0)-(0)--12-11--(0)-(0)--7-8--(0)-(0)--5--(0)--3-----------------------------------------| Repeat x3
D-0--(0)-(0)--12-11--(0)-(0)--7-8--(0)-(0)--5--(0)--3-----------------------------------------| Repeat x3
A---------------------------------------------------------------------------------------------|


Transition Riff #1

E---------------------------------------------------------------------------------------------|
B---------------------------------------------------------------------------------------------|
G---------------------------------------------------------------------------------------------|
D---------------------------------------------------------------------------------------------|
A---------------------------------------------------------------------------------------------|
D-0-0-0-0--3--0-0-0-0-0-0-0--5--0-0-0-0-0-0-0--3--0-0-0-0-0-0-0--1--0-0-0---------------------| Repeat x1
A---------------------------------------------------------------------------------------------|
Main Riff #2

E---------------------------------------------------------------------------------------------|
B---------------------------------------------------------------------------------------------|
G---------------------------------------------------------------------------------------------|
D-------------12-11-----------7-8-----------5--(0)--3-----------------------------------------|
A-0--(0)-(0)--12-11--(0)-(0)--7-8--(0)-(0)--5--(0)--3-----------------------------------------|
D-0--(0)-(0)--12-11--(0)-(0)--7-8--(0)-(0)--5--(0)--3-----------------------------------------| Repeat x3
A---------------------------------------------------------------------------------------------|



************************************

| (n)  Ghost note

************************************
Suggest correction
Give kudos to tab author, rate the tab!
1 2 3 4 5
comments
print report bad tab
guest
You may want to rate the tab now too:
select rating
Wanna post a correction for this tab? Suggest correction