Oops, an error
Loading. Please wait.

Accolade Ii Tab

version 2
version 2

Whole song

Interactive

1,385 views 3 this week
no commentswrite comment
1 2 3 4 5
please rate
add to favorites
launch autoscroll
font size
0
reset
how to read this tab
guitar tuner
Autoscroll
slow
fast
+/-
esc
set tempo
stop
Help us to improve Ultimate-Guitar.com Take our survey!
×
Author
-------------------------------------------------------------------------------
                             Accolade II - Symphony X
-------------------------------------------------------------------------------
Tabbed by: Jetfuel495
Email:

Tuning: DGCFAD (one step down)


NOTICE: this is the piano interlued that comes in when all the guitars fade
out. i transcribed it for the guitar because i think its really fun to
play. This whole thing is played twice, once without the vocals, and
another time with the words 'i wish to stay to be here with you...'


if you need any help playing this i have a recording of it in my profile.
this tab is 100% correct, trust me.


D||------------------15--16--15------|----------------------------------|
A||--18----------18--------------16--|------16--------------------------|
F||------17--------------------------|--15------15------18------15--18--|
C||----------15----------------------|--------------17------15----------|
G||----------------------------------|----------------------------------|
D||----------------------------------|----------------------------------|


 
D||----------------------15----------|------------------15--16--18------|
A||--16--18--16--------------16------|--18----------18--------------16--|
F||--------------15--------------15--|------17--------------------------|
C||------------------17--------------|----------15----------------------|
G||----------------------------------|----------------------------------|
D||----------------------------------|----------------------------------|


                                                Hold this last note   
D||------15--------------------------|--15--16---------------------||
A||------------------16----------16--|----------18-----------------||
F||--15------15--------------15------|-----------------------------||
C||----------------------17----------|-----------------------------||
G||--------------18------------------|-----------------------------||
D||----------------------------------|-----------------------------||



| /  slide up
| \  slide down
| h  hammer-on
| p  pull-off
| ~  vibrato
| +  harmonic
| x  Mute note
===============================================================================
Suggest correction
Give kudos to tab author, rate the tab!
1 2 3 4 5
comments
print report bad tab
guest
You may want to rate the tab now too:
select rating
Please do not post tabs as comments. Select "correction" instead!