Oops, an error
Loading. Please wait.

Awakenings Bass Tab

version 1
version 1

Whole song

Interactive

714 views 1 this week
no commentswrite comment
1 2 3 4 5
please rate
add to favorites
launch autoscroll
font size
0
reset
guitar tuner
Tab Pro tools
  • play this tab
  • loop segment
  • change instrument
  • show fretboard
  • metronome
×
Best way to learn
"Awakenings"
Autoscroll
slow
fast
+/-
esc
set tempo
stop
Contributor
Difficulty
advanced
Here is the BASS tab for awakenings, standard tuning

Intro
  |-----|-------|-------|
12|-----|-------|-------|
8 |--2--|--(2)--|--(2)--|
  |-----|-------|-------|

after that, 5 bar bass tacet

								      Triplet
(00:23)								      /    \
|--------16-------16-------16----16-18-|-19-21-19-18-19-18-16-18--161816-14-16--|
|-----16-------16-------16----16-------|----------------------------------------|
|--14-------14-------14----------------|----------------------------------------|
|--------------------------------------|----------------------------------------|

|--17------19-21-19-21b-(21)--|--------------------------------|
|-------17--------------------|-12-14-12-10-9-12-10-9-7-10-9-7-|
|-----------------------------|--------------------------------|
|-----------------------------|--------------------------------|


|-------------------------|-------------------------|------------------------------|
|-----9-----9-----9-----9-|-----9-----9-----9-----9-|-----10-----10-----10------10-|
|---9-----9-----9-----9---|---9-----9-----9-----9---|---10-----10-----10------10---|
|-7-----7-----7-----7-----|-7-----7-----7-----7-----|-8------8------8-------8------|
								^
|----9-11-12-9-11-----------------|				|
|-12--------------12-10-9---------|				|
|-------------------------12-10-9-|  --------------This section twice   
|---------------------------------|

	 		   
 |------|-----|-----|------| |---------|---------| |------------|------| |---------|
3|o-----|-----|-----|-----o|3|o--------|--------o|3|------------|------|9|---------|
4|o-----|-----|-----|-----o|4|o--------|----2---o|4|--0---14-12-|-11---|4|--4--(4)-|
 |---7--|--5--|--4--|--3---| |----2----|---------| |------------|------| |---------|


after that, 23 bar bass tacet

						
		I’m pretty sure these are in  7/4
(2:38)
 |---------------|---------------|---------------------------------------|
7|---------------|---------------|o-------------------------------------o|
4|-4--44--4-4-44-|-4--44--4-4-44-|o--5-4-2-4--2-4-2-4-5-4--2-4--4--4-44-o|  X4
 |---------------|---------------|---------------------------------------|

then to 4/4
 |-------------------------------|-------------------4-7-6-|--------------|
4|-------------------------------|-------------3-6-5-------|--------------|
4|-5-4-2-4--2-4-2-4-5-4-2-4--2-4-|(4)----2-5-4-------------|-4---4---4-4--|
 |-------------------------------|---1-4-------------------|--------------|

|-------------------------------|----------------|-------------------------------|
|-------------------------------|----------------|-------------------------------|
|-5-4-2-4--2-4-2-4-5-4-2-4--2-4-|--4-----4-----4-|-5-4-2-4--2-4-2-4-5-4-2-4--2-4-|
|-------------------------------|-----3-----3----|-------------------------------|

|-------------4-6-7-6-4---------|
|-------3-5-6-----------6-5-3---|
|-2-4-5-----------------------5-| 
|-------------------------------|						        

Guitar solo now (3:10)
|-------------------------|-------------------------|--------------------|
|-------5----5-6-5-3-5--5-|o--5--5----5-6-5-3-5--5-o|-5--5----5-6-5-3-5--|
|-------------------------|o-----------------------o|--------------------|
|--3--3--3--3----------3--|----3--3--3----------3---|--3--3--3-----------|


verse (3:25)
|-------------------------|----------------------|----------------------|
|o------------------------|----------------------|----------------------|
|o------7----7-8-7-5-7--7-|-7--7----7-8-7-5-7--7-|-7--7----7-8-7-5-7--7-|
|--0--0--0--0----------0--|--0--0--0----------0--|--0--0--0----------0--| 

|----------------------|----------------------|----------------------|
|----------------------|----------------------|----------------------|
|-7--7----7-8-7-5-7--7-|-7--7----7-8-7-5-7--7-|-7--7----7-8-7-5-7--7-|
|--0--0--0----------0--|--0--0--0----------0--|--0--0--0----------0--|

|----------------------|-----------------------|
|----------------------|----------------------o|
|-7--7----7-8-7-5-7--7-|-7--7----7-8-7-5-7--7-o|
|--0--0--0----------0--|--0--0--0----------0---|
                            __________________________   ______________________
			     /      FIRST ENDING          /      SECOND ENDING
 |------------------------| |--------------------------|  |-----------------------|
3|o-----------------------|6|-------------------------o| 7|-----------------------|
4|o-----------------------|4|-----------------------3-o| 4|-----------------------|
 |--2--0--2-3-2-0-3-5-3-0-| |-2--0--2-3-2-0-3-5-3-0----|  |-2--0--2-3-2-0-3-5-3-0-5-7-5-0-7-9-7-0-|

 |---------|-----------| |------------| |---------------|
4|---------|-----------|6|------------|7|---------------|
4|-5----5--|-5--5-55-5-|4|-5---5--5-5-|4|-5--5---5-5-55-|
 |---------|-----------| |------------| |---------------|

GUITAR SOLO
 |------------------------|------------------------|-----------------------|
4|-----7-----7-8-7-5-7--7-|o-7---7----7-8-7-5-7--7-|-7---7----7-8-7-5-7--7-|
4|-0--0--0--0----------0--|o--0---0--0----------0--|--0---0--0----------0--|
 |------------------------|------------------------|-----------------------|

|------------------------|---------------------|
|-7---7----7-8-7-5-7--7-o|-7---7----7-8-7-5-7--|
|--0---0--0----------0--o|--0---0--0-----------|
|------------------------|---------------------|

VERSE
|------------------------|------------------------|-----------------------|
|------4----4-5-4-2-4--4-|o-4---4----4-5-4-2-4--4-|-4---4----4-5-4-2-4--4-|
|------------------------|o-----------------------|-----------------------|
|-2--2--2--2----------2--|---2---2--2----------2--|--2---2--2----------2--|

|------------------------|---------------------|------------|---------------|
|-4---4----4-5-4-2-4--4-o|-4---4----4-5-4-2-4--|------------|---------1--4--|
|-----------------------o|---------------------|---------3--|-(3)-4---------|
|--2---2--2----------2---|--2---2--2-----------|-4---5------|---------------|

 |------------------------|-----------------------|-----------------------|--------|
6|o-----------------------|-----------------------|-----------------------|-3---1--|
8|o-----------------------|-----------------------|-----------------------|--------|
 |--1--1-1-1-1-1--1-1-1-1-|-1--1-1-1-1-1--1-1-1-1-|-1--1-1-1-1-1--1-1-1-1-|--------|
							     ____________    
							    /FIRST ENDING   
|---------------------|-----------------------|---------|------------|  
|---------------------|-----------------------|-1-------|-----------o|  
|--4--4-4-4-4-4-------|-----------------------|-----3---|--4--------o| 
|----------------4--3-|-1--1-1-1-1-1--1-1-1-1-|---------|-------4-3--|  
 __________
/SECOND ENDING
|------8-6---|---------|-----------|
|----------6-|---------|-------3-5-|
|-4--4-------|-6---3---|-4---6-----|
|------------|---------|-----------|

|----------|--------4-3-|-1-------|------|-------|-------|-------|-------|------|-------|
|o---------|------------|-----2---|-1---o|-------|-------|-------|-------|------|-------|
|o---------|------------|---------|-----o|-------|-------|-------|-------|-2----|-2-----|
|--4---0---|-2--(2)-----|---------|------|-0-----|-2-----|-3-----|-5-----|------|-------|


|-4-2-6-4-2---|-------------| |------| |------|-------| |-------------| |------|
|-----------4-|-3-2---2-----|3|------|6|------|-------|7|-------------|6|------|
|-------------|-----5---5---|8|------|8|------|-------|8|---7--5------|8|------|
|-------------|-----------5-| |-0----| |-0----|-0---0-| |-------7-5-7-| |-0----|

 |-------------|----------| |----------|--------------|-----------|-----------|---------|
3|-------------|----------|6|----------|--------------|-----------|-----------|---------|
4|-------------|----------|8|----------|--------------|-----------|-----------|---------|
 |-0-2-3-5--0--|--0-0-2-3-| |-5---(5)--|--(5)---0-2-3-|-5---(5)---|-(5)---(5)-|-0---0---|

|---------|---------|-----------|----------|-------------| |-----------------------|
|---------|---------|-----------|----------|-------------|9|-----------------------|
|---------|---------|-----------|----------|-------------|8|-----------------------|
|-0---0---|-0---0---|-0---0-2-3-|-4---(4)--|-(4)---0-2-3-| |-4---(4)---(4)---------|

JAZZ PIANO SOLO (5:56)
 |--------------|-------------|-------------|--------------|
6|o-------------|-------------|-------------|-------------o|
8|o-------3-6-5-|-------3-6-5-|-------3-6-5-|-------3-6-5-o|
 |--3-5-6-------|-3-5-6-------|-3-5-6-------|-3-5-6--------|

|--------------|-------------|-------------|--------------|
|o-------------|-------------|-------------|-------------o|
|o-------2-5-4-|-------2-5-4-|-------2-5-4-|-------2-5-4-o|
|--2-4-5-------|-2-4-5-------|-2-4-5-------|-2-4-5--------|

 |----------| |-------245--| |--------|
7|o-2-------|3|------2----o|6|--------|
8|o----5--2-|8|-3--23-----o|8|--------|
 |----------| |------------| |-4------|
		    ^NOT 23 (SIXTEENTH NOTES)

7 bar bass tacet

|----------|----------|----------|-----------|  
|o---------|------1---|----------|------1---o| 
|o-1---3---|--4-------|--1---3---|--4-------o|
|----------|----------|----------|-----------|  
			       ____________  _____________
			      /FIRST ENDING /SECOND ENDING
  |--------|-------|--------|--------|    |------------|
 3|o-4--4--|-4--4--|-1--1---|-1--1--o|   3|--1--3--4---|
16|o-------|-------|--------|-------o|   8|------------|
  |--------|-------|--------|--------|    |------------|

 |----------|----------|----------|------------|  
6|o---------|----------|----------|-----------o| 
8|o---------|------1---|----------|------1----o|
 |--1---3---|--4-------|--1---3---|--4---------|  

first ending expanded for clarity __________________ _____________
				   /FIRST ENDING      /SECOND ENDING
|----------|----------|----------|------------------|----------|
|o---------|------3---|----------|-7-5-3---5-3-----o|------3---|
|o-3---5---|--6-------|--3---5---|-------6-----6-5-o|--6-------|
|----------|----------|----------|------------------|----------|
			      ____________    _____________
			     /FIRST ENDING   /SECOND ENDING
  |--------|-------|-------|-------|       |------------|
3 |o-6--6--|-6--6--|-3--3--|-3--3--|      3|--3--5--6---|
16|o-------|-------|-------|-------|      8|------------|
  |--------|-------|-------|-------|       |------------|

				     __________	_________
				    /1st ENDING	      /2nd ENDING
 |----------|----------|----------|----------|     |---------|
6|o---------|----------|----------|----------|    3|---------|
8|o---------|------3---|----------|------3---|    8|---------|
 |--3---5---|--6-------|--3---5---|--6-------|     |--6------|


 |---------|--------------|
6|---------|--------------|
8|--3------|--(3)---(3)---|
 |---------|--------------|

 |------------------------|-----------------------|-----------------------|--------|
6|o-----------------------|-----------------------|-----------------------|-3---1--|
8|o-----------------------|-----------------------|-----------------------|--------|
 |--1--1-1-1-1-1--1-1-1-1-|-1--1-1-1-1-1--1-1-1-1-|-1--1-1-1-1-1--1-1-1-1-|--------|
							     ____________    
							    /FIRST ENDING   
|---------------------|-----------------------|---------|------------|  
|---------------------|-----------------------|-1-------|-----------o|  
|--4--4-4-4-4-4-------|-----------------------|-----3---|--4--------o| 
|----------------4--3-|-1--1-1-1-1-1--1-1-1-1-|---------|-------4-3--|  
 __________
/SECOND ENDING
|------8-6---|---------|-----------|
|----------6-|---------|-------3-5-|
|-4--4-------|-6---3---|-4---6-----|
|------------|---------|-----------|

|---------|---------4-3-|-1-------|---------|----------|------------|
|---------|-------------|-----2---|--1------|----------|------------|
|---------|-------------|---------|---------|----------|------------|
|--4---0--|--2--(2)-----|---------|---------|--4---0---|--2---(2)---|

	     
 |--------|------------|
4|--------|------------|
4|--------|------------|
 |--4--0--|--2-(2)--22-|
	     ^
           HOLD THIS


END 
comments
We did not receive enough feedback on this tab! Please rate:
print report bad tab
1 2 3 4 5
I want to post or [tab]
guest
You may want to rate the tab now too:
select rating
Please do not post tabs as comments. Select "correction" instead!