Oops, an error
Loading. Please wait.

Eve Of Seduction Tab

version 1
version 1

Intro

Interactive

9,554 views 3 this week
4 commentsread comments
1 2 3 4 5
excellent!
x 4
add to favorites
launch autoscroll
font size
0
reset
how to read this tab
guitar tuner
Autoscroll
slow
fast
+/-
esc
set tempo
stop
Help us to improve Ultimate-Guitar.com Take our survey!
×
Author
Difficulty
intermediate
Tabbed by: Jon Mallory
Email: jmallory@sasweb.org

I've figured out bits and pieces to this song cause i love it so much lol. But if anyone 
any corrections email me them and i will give you credit for the tabbed parts. Thanx 
enjoy :)

Tuning: D Standerd
d
A
F
C
G
D

Intro:x2
d|----------------10h12p10p0-----------------------------------------------|
A|-12p7-0-10p7-0-------------10p0-8p0-7p0----------------10h12p10p0--7p0---|
F|------------------------------------------7p0-0-9p0-0--------------------|
C|-------------------------------------------------------------------------|
G|-------------------------------------------------------------------------|
D|-------------------------------------------------------------------------|

d|-------------------------------------------------------------------------|
A|-8p0-10p0--7p0-7h8p7p0---------10h12p10p0-10p0---7p0-0-7p0-0-10p0--------|
F|-----------------------7p0-9p0-------------------------------------------|
C|-------------------------------------------------------------------------|
G|-------------------------------------------------------------------------|
D|-------------------------------------------------------------------------|

d|-------------------------------------------------------------------------|
A|-7p0-0-7p0-0-10p0--------------------------------------------------------|
F|-------------------------------------------------------------------------|
C|-------------------------------------------------------------------------|
G|-------------------------------------------------------------------------|
D|-------------------------------------------------------------------------|

d|-------------------------------------------------------------------------|
A|-12p0-12p0-10h12p10p0-8h10p8p0-7h8p7p0-5h7p5p0-3h5p3p0--2h3p2p0----------|
F|----------------------------------------------------------------3h4p3p0--|
C|-------------------------------------------------------------------------|
G|-------------------------------------------------------------------------|
D|-------------------------------------------------------------------------|

0:20
d|---------------------------------------------------------------------------|
A|-----------------------------------------------------------------------:---|
F|-----------------5---------------------  ----------------------------------|
C|-4---4-4---3-4---5-4---4-4-4-4---------x2----------------------------------|
G|-4---4-4---3-4---3-4---4-4-4-4---------  ------------------------------:---|
D|-2---2-2---1-2-----2---2-2-2-2---------------------------------------------|
                         p.m p.m
d|-------------------------------------------------------------------------|
A|--------------------------9----------------------------------------------|
F|----------7---------------7----------------------------------------------|
C|--6-------6--------6------6-----9----------------------------------------|
G|--6-------5-----9--6------5-----9----------------------------------------|
D|--4-------------7--4------------7----------------------------------------|

Main Riff: 0:46
d|-------------------------------------------------------------------------|
A|-------------------------------------------------------------------------|
F|-------------------------------------------------------------------------|
C|-------------------------------------------------------------------------|
G|-----------------5-------------------4p2---------------------------------|
D|-4-2-4-5-4---2-4---4---2-4-5-4---4-2-----4-2--4-2-4-5-4---4-2-4b5r4--4-2-|
   p...m       p.m       p.m       p.m     p.m    p.m       p.m       pm

0:50 - During this part (the sliding cromatic part) hold the notes.
d|-------------------------------------------------------------------------|
A|-------------------------------------------------------------------------|
F|-------------------------------------------------------------------------|
C|-------------------------------------------------------------------------|
G|-----6---6s5---5s4---4s3--------2-------------------5-----------------4p2|
D|-4s7---7-----6-----5------4p2-4---4--2--4-5-4--2--4--4--2--4-5-4--4-2----|
         p     p     p      p...m      p..m      p..m     p..m      p.m
d|-------------------------------------------------------------------------|
A|-------------------------------------------------------------------------|
F|------4---------6--------------------------------------------------------|
C|------4---------6---4----------------------------------------------------|
G|------2---------4---4----------------------------------------------------|
D|-4-2----------------2----------------------------------------------------|
   p.m

Awesome, i got through it lol. Enjoy...

| s                         slide
| h                         hammer-on
| p (on note)               pull-off
| p.m or p (under note)     Mute note (...{dots} being the length)
Suggest correction
What's this?
You can suggest a correction to this tab. Community and Mods will review your correction and vote to approve or reject it.
comments
print report bad tab
4 comments total. Showing first comments.
-2 reply
Iron Viking 12 wrote on June 16 2008, 10:45 am

hi
great tab, good work.

+2 reply
Iron Viking 12 wrote on June 16 2008, 10:45 am

hi
great tab, good work.

0 reply
Immolate666 43 wrote on July 3 2008, 01:29 pm

Great tab, easy to read. Looks good and sounds good! (^^)-b

guest
You may want to rate the tab now too:
select rating
Please do not post tabs as comments. Select "correction" instead!