Oops, an error
Loading. Please wait.

Fallen Bass Tab

version 2
version 2

Whole song

Interactive

249 views 1 this week
no commentswrite comment
1 2 3 4 5
please rate
add to favorites
launch autoscroll
font size
0
reset
guitar tuner
Autoscroll
slow
fast
+/-
esc
set tempo
stop
Help us to improve Ultimate-Guitar.com Take our survey!
×
Author
Difficulty
intermediate
tuning :  standard   EADG
  this is a fairly simple song. im pretty sure these tabs are right

  -----------------------------------------------------------------------|
  -------3-2-0-2-3-6/2-2-2-2-2-2-2-2-2-2-2-2-2-2-2-2-2-2-2-0-2-3-7-6-0-3-|
  2-0-2-3----------------------------------------------------------------|
  -----------------------------------------------------------------------|

  ---------------------------------------------------------------|
  2-2-2-2-2-2-0-2-3-7-6-0-3-2-2-2-2-2-2-0-2-3-7-6-3-0-3-2-1------|
  ---------------------------------------------------------3-2-1-|
  ---------------------------------------------------------------|

  --------------------------------------------------------------|
  3---2-2-2-2-2-2-2-0-0-2-2-3-3-7-7-6-6-4/3-2-2-2-2-2-2-0-2-3-7-|
  --------------------------------------------------------------|
  --------------------------------------------------------------|

  ------------------------------------------------------------------|
  6-0-3-2-2-2-2-2-2-0-0-2-2-3-3-7-7-6-6-4---------------------------|3_____ ______ ___   ______
  ----------------------------------------|   __||    | | |   |   --|
  ----------------------------------------|  |__ | || | | |   | ||--|
                                          |___  || || | | |   | || |
                                           ___| || || | | |__ | || |
                                          |_____||____| |____||____|

  Verse1
  --------------------------------------------------------------|
  2-0-3-2-3-2-3-3-0-0-2-2-3-2-0-3-2-0-2-3-2-0-3repeat-----------|
  --------------------------------------------------------------|
  --------------------------------------------------------------|

  chorus
  --------------------------------------------------------------|
  5-4-3---------1-0-------------------------------2-5/12--------|
  ------0-0-0-0-----0-0-0-0-0-0-3/1-3/1----repeat--------5/12---|
  --------------------------------------------------------------|

  Verse2
  --------------------------------------------------------------|
  3-3-3-3-3-3-1-3-4-8-7-2-1-4-3-3-3-3-3-3-0-3-4-8-7-5-----------|
  --------------------------------------------------------------|
  --------------------------------------------------------------|

  Same as verse 1 except on b string----------------------------|
  --------------------------------------------------------------|
  --------------------------------------------------------------|
  --------------------------------------------------------------|

   The rest after that is a complicated solo so i do know have an idea as how to how to play it
Suggest correction
Give kudos to tab author, rate the tab!
1 2 3 4 5
comments
print report bad tab
guest
You may want to rate the tab now too:
select rating
Please do not post tabs as comments. Select "correction" instead!