Oops, an error
Loading. Please wait.

Kiss Of Fire tab

version 1
version 1

Whole song

Interactive

1,614 views 9 this week
1 commentread comment
1 2 3 4 5
3 more votes to show rating
add to favorites
×
Save as Personal and add changes to this tab that will be seen only by you. Learn more ›
×
You can save this tab as Personal to edit and correct it or add notes. All changes will be seen only by you. Learn more »
launch autoscroll
font size
0
reset
how to read this tab
guitar tuner
edit
Autoscroll
slow
fast
+/-
esc
set tempo
stop
Kiss of Fire -Symphony X

This is my first tab, so it may not be perfect.  There may be a few minor errors, but this will certainly get 
you pointed in the right direction.  I may have a go at tabbing out the solo later on.  

E-mail: danajerpbak@yahoo.com

Tuning: D G C F A d (standard D tuning)

Main riff x2

d|------------------------------------|------------------------------|
A|------------------------------------|------------------------------|
F|------------------------------------|------------------8-8-8-8-8-8-|
C|------------------------------------|------------------8-8-8-8-8-8-|
G|2-----------------2-----------------|2-----------------6-6-6-6-6-6-|
D|0--0--0--6h8p6p5--0--0--0--6h8p6p5--|0--0--0--6h8p6p5--------------|

d|------------------------------------|
A|------------------------------------|
F|------------------------------------|
C|------------------------------------|
G|2-----------------2-----------------|
D|0--0--0--6h8p6p5--0--0--0--6h8p6p5--|

d|--------------------------------------------------|
A|--------------------------------------------------|
F|--------------------------------------------------|
C|--------------------------------------------------|
G|2-----------------3-3-------------2-2-------------|
D|0--0--0--6h8p6p5------3-3-3-3-3-3-----1-1-1-1-1-1-|

Transition x1

d|---------------|---------------|----------|--------------|-----|
A|---------------|---------------|----------|--------------|-----|
F|---------------|---------------|----------|--------------|-----|
C|---------------|----------6----|5---------|--------------|-----|
G|5----8----4----|5----8----4----|3----4----|4--7--4--3----|2----|
D|3----6----2----|3----6---------|-----2----|2--5--2--1----|0----|

Bass intro

Verse riff x3

d|--------------------------------------------|
A|--------------------------------------------|
F|--------------------------------------------|
C|9---------------9--9------------------------|
G|7---------------7--7------------------------|
D|---0--6b7b6—-0--------6b7b6----0--0-0-0--0--|

d|----------------------------------------|
A|----------------------------------------|
F|----------------------------------------|
C|9---------------9--9--------------------|
G|7---------------7--7--------------------|
D|---0--6b7b6—-0--------0--0--0--0--0--0--|

d|--------------------------------------------|
A|--------------------------------------------|
F|--------------------------------------------|
C|9---------------9--9------------------------|
G|7---------------7--7------------------------|
D|---0--6b7b6—-0--------6b7b6----0--0-0-0--0--|

d|------------------------------------|
A|------------------------------------|
F|------------------------------------|
C|9---------------9--9----------------|
G|7---------------7--7--------8s10s8--|
D|---0--6b7b6—-0--------0--0----------|

Chorus (main riff x2)

Verse riff x2

Replace the last bit of the verse riff with a pick slide down the lowest string the second time around.

Chorus (main riff x2)

Bridge x1

d|---------------|---------------|---------------|---------------|
A|---------------|---------------|---------------|---------------|
F|---------------|---------------|5--------------|5--------------|
C|---------------|----------6----|3----7----6----|3----7----6----|
G|5----8----4----|5----8----4----|-----5----4----|-----5----4----|
D|3----6----2----|3----6---------|---------------|---------------|

d|---------------|----------|
A|---------------|----------|
F|---------------|----------|
C|5----6----5----|----------|
G|3----4----3----|6----5----|
D|---------------|4----3----|

Breakdown riff 1 x1

d|------------------------------------|-------------------------------------|
A|------------------------------------|-------------------------------------|
F|------------------------------------|-------------------------------------|
C|------------------------------------|---------3-3-4-4-3-------------------|
G|---------3--3--3-----------3--3--3--|---------1-1-2-2-1----------3--3--3--|
D|3h4p3p1--1--1--1--3h4p3p1--1--1--1--|3h4p3p1------------3h4p3p1--1--1--1--|

d|-----------------|
A|-----------------|
F|-----------------|
C|------------3----|
G|---------3--2----|
D|3h4p3p1--1-------|

Breakdown riff 2 x4

d|------------------------------------|------------------------------------|
A|------------------------------------|------------------------------------|
F|------------------------------------|------------------------------------|
C|------------------------------------|------------------------------------|
G|---------3--3--3-----------3--3--3--|---------3--3--3-----------3--3--3--|
D|3h4p3p1--1--1--1--3h4p3p1--1--1--1--|6h7p6p4--1--1--1--3h4p3p1--1--1—-1--|

d|------------------------------------|------------------------------------|
A|------------------------------------|------------------------------------|
F|---------------------------9--9--9--|------------------------------------|
C|---------------------------9--9--9--|------------------------------------|
G|---------3--3--3--6--2--2—-7—-7-—7--|---------3--3--3-----------3--3--3--|
D|3h4p3p1--1--1--1—-4-—0—-0-----------|3h4p3p1--1--1--1--3h4p3p1--1--1--1--|

d|------------------------------------|-------------------------|
A|------------------------------------|-------------------------|
F|------------------------------------|-------------------------|
C|------------------------------------|-------------------------|
G|---------3--3--3-----------3--3--3--|-------------------------|
D|6h7p6p4--1--1--1--3h4p3p1--1--1--1--|3h4p3p1—2b3-3-3-3-3-3-3--|

Solo rhythm part 1 x4

d|-----------------------------|----------------------------|
A|-----------------------------|----------------------------|
F|-----------------------------|----------------------------|
C|-----------------------------|----------------------------|
G|-----------------------------|----------------------------|
D|3-3-1-0--5-5-3-0--3-3-1-0--0-|3-3-1-0--5-5-3-0--3-3-6--1--|


Solo rhythm part 2 x1

d|--------------------------------------------|
A|--------------------------------------------|
F|9---------------9--9------------------------|
C|7---------------7--7------------------------|
G|---0--6b7b6—-0--------6b7b6----0--0-0-0--0--|
D|--------------------------------------------|

d|----------------------------------------|
A|----------------------------------------|
F|9---------------9--9--------------------|
C|7---------------7--7--------------------|
G|---0--6b7b6—-0--------0--0--0--0--0--0--|
D|----------------------------------------|

d|--------------------------------------------|
A|--------------------------------------------|
F|9---------------9--9------------------------|
C|7---------------7--7------------------------|
G|---0--6b7b6—-0--------6b7b6----0--0-0-0--0--|
D|--------------------------------------------|

d|-------------------------------|
A|-------------------------------|
F|9---------------9--8--8--8--8--|
C|7---------------7--7--7--7--7--|
G|---0--6b7b6—-0-----------------|
D|-------------------------------|

Chorus (main riff x4)

The second part of the riff changes the fourth time around.

  Blinding light                         Kiss of fire
d|------------------------------------|------------------------------|
A|------------------------------------|------------------------------|
F|------------------------------------|------------------8-8-8-8-8-8-|
C|------------------------------------|------------------8-8-8-8-8-8-|
G|2-----------------2-----------------|2-----------------6-6-6-6-6-6-|
D|0--0--0--6h8p6p5--0--0--0--6h8p6p5--|0--0--0--6h8p6p5--------------|

  From the depths
d|------------------------------------|
A|------------------------------------|
F|------------------------------------|
C|------------------------------------|
G|2-----------------2-----------------|
D|0--0--0--6h8p6p5--0--0--0--6h8p6p5--|

                     Arise                      
d|----------------------------|
A|----------------------------|
F|----------------------------|
C|------------------5---------|
G|2-----------------3----6----|
D|0--0--0--6h8p6p5-------4----|


Outro (breakdown riff 2 x4)




            
            
Suggest correction
Creating personal tab
Creating personal tab
You can edit any tab online and save it as your Personal.

You can edit, replace or remove any tab part or add personal notes – all changes will be seen only by you.

Personal tabs can be accessed anytime from any device, even offline.
Learn more »
Give kudos to tab author, rate the tab!
1 2 3 4 5
comments
print report bad tab
1 comment total.
0 reply
Psychoduck 10 Aug 06, 2015 01:23 PM

I accidentally put an extra measure in the second part of main riff. It should look like this instead.

d|------------------------------------|--------------------------------|
A|------------------------------------|--------------------------------|
F|------------------------------------|--------------------------------|
C|------------------------------------|--------------------------------|
G|2-----------------2-----------------|3-3-------------2-2-------------|
D|0--0--0--6h8p6p5--0--0--0--6h8p6p5--|----3-3-3-3-3-3-----1-1-1-1-1-1-|

guest
Wanna post a correction for this tab? Suggest correction