Oops, an error
Loading. Please wait.

Of Sin And Shadow bass

1,301 views 3 this week
no commentswrite comment
1 2 3 4 5
3 more votes to show rating
add to favorites
×
Save as Personal and add changes to this tab that will be seen only by you. Learn more ›
×
You can save this tab as Personal to edit and correct it or add notes. All changes will be seen only by you. Learn more »
launch autoscroll
font size
0
reset
guitar tuner
edit
Autoscroll
slow
fast
+/-
esc
set tempo
stop
Author
Difficulty
 guitar starts

play this 4xs each time with a diffrent ending play this then the fill and before u make 
ending play 2xs
|------------------------------------------|
|------------------------------------------|
|-------------------------------1-2--------|
|--22-0-22-0-22-0-22-0-22--0-2-3----0-3-2--|

Bass Fill

|----------|
|----------|
|----------|
|-----14/--|

ending 1
|--------------------------------------------------------------------------|
|--------------------------------------------------------------------------|
|-----------------------2-1-------------------4-2-1------------------------|
|-22-0-22-0-2-0-2-0-2-3-----0-3-2-2-0-2-2-0-2-------3-2-0-2-0-2/3--2-0-2/3-|
ending 2
|------------------------------------------------8-6-5--------------------|
|------------------------------------------------------7-6-4--------------|
|-------------------------2-1--------------------------------6-4-3--------|
|-2-2-0-2-2-0-2-0-2-0-2-3-----0-3-2-2-0-2-2-0-2--------------------5-4-2--|
   ending 3                                              trill
|---------------------------------------------------------------------|
|--------------------------------------------------------4(5)--3(4)---|
|------------------------21-------------------4(5)--6(7)--------------|
|-22-0-22-2-0-2-0-2-0-23----0-3-22-0-22-0-2---------------------------|


|-------------------------------------------------------------------------|
|-------------------------2-1-------------------4-2-1---------------------|
|-2-2-0-2-2-0-2-0-2-0-2-3-----0-3-2-2-0-2-2-0-2-------3-2-0-2-0-3---------|
|-------------------------------------------------------------------------|


|--------------------------------------------------------------------------|
|--------------------------------------------------------------------------|
|-------------------------4-3-------------------6-4-3----------------------|
|-4-4-2-4-4-2-4-2-4-2-4-5-----2-5-4-4-2-4-4-2-4-------5-4-2-4-2-5----------|

verse 2x

|---------------------------------------------------------------------------|
|---------------------------------------------------------------------------|
|-4-4--4-4-4-4--4-4-4-4--4-4-4-4--4-4-4-4--4-4-4-4--4-4-4-4--4-4-4-4--4-4-4-|
|---------------------------------------------------------------------------|
cont.                                      then play this ending the 2ed time
|----------------------------------------|---------------4----------------|
|----------------------------------------|-----7-6-5---4----4-3-----------|
|--4-4-4-4--4-4-4-4--4-4-4-4---0-----6~--|-0------------------------------|
|----------------------------------------|------------------------0-----2-|
Chours                              fills here
|----------------------------------------------------------5-3-2------------|
|--------4------4---x-x-3----1---x-x-2-----3-3-1-3-3-1-3-------4-3-1-3-1-4--|
|-1-------------------------------------------------------------------------|
|---------------------------------------------------------------------------|

bass fill for the middle of the chours
|-------7--9--------------|
|----4---------9-7--------|
|--4----------------9-7---|
|-------------------------|

|------------------------------------------------------------------------|
|---------4------2---x-x-3-----------4-----------3-3-3-3-3-3-3-----------|
|-1---------------------------4---x-x------------------------------------|
|------------------------------------------------------------------------|

right before that guitar part
|--------------------------------------------------------------------|
|-------------------------5-4----------------------------------------|
|-5-5-3-5-5-3-5-3-5-3-5-6-----3-6-5~---------------------------------|
|--------------------------------------------------------------------|

verse 2x

|---------------------------------------------------------------------------|
|---------------------------------------------------------------------------|
|-4-4--4-4-4-4--4-4-4-4--4-4-4-4--4-4-4-4--4-4-4-4--4-4-4-4--4-4-4-4--4-4-4-|
|---------------------------------------------------------------------------|
cont.                                      then play this ending the 2ed time
|----------------------------------------|---------------4----------------|
|----------------------------------------|-----7-6-5---4----4-3-----------|
|--4-4-4-4--4-4-4-4--4-4-4-4---0-----6~--|-0------------------------------|
|----------------------------------------|------------------------0-----2-|
Chours                              fills here
|----------------------------------------------------------5-3-2------------|
|--------4------4---x-x-3----1---x-x-2-----3-3-1-3-3-1-3-------4-3-1-3-1-4--|
|-1-------------------------------------------------------------------------|
|---------------------------------------------------------------------------|

bass fill for the middle of the chours
|-------7--9--------------|
|----4---------9-7--------|
|--4----------------9-7---|
|-------------------------|

|------------------------------------------------------------------------|
|---------4------2---x-x-3-----------4-----------3-3-3-3-3-3-3-----------|
|-1---------------------------4---x-x------------------------------------|
|------------------------------------------------------------------------|

power chords b4 the interludeinterlude
|--------|
|--------|
|--5--7--|
|--------|


this is the interludeinterlude            ending 1          ending 2
|----------------------------------|-----------------|------------------|
|----------------8-7-5-------------|-----------------|------------------|
|-5------5-4-----------8-7-5--5----|--7--8---11------|--10--------------|
|----------------------------------|-----------------|------------------|

play this during guitar solo 1
|------------------------------|
|------------------------------|
|4-44-44-44-44-44-44-44-44-----|
|---------------------------0~-|

play this during keybord solo
|-------------------------------|
|-------------------------------|
|-------------------------------|
|-0-00-00-00-00-00-00-00-00--2~-|
guitar solo
|-------------------------------|
|-------------------------------|
|----------------------------4--|
|-2-22-22-22-22-22-22-22-22-----|
keybored
|------------------------------------|
|------------------------------------|
|4-44-44-44-44-44-44-44-44-----------|
|-----------------------------5~--7~-|

u'll get the rest heres the fills for the ending
 its right at the end of the kst part of the chours
play this fast!!!!
|-9-8-7-6----------9-8-7-6-------------9-8-7-6-------------|
|---------9-8-7-6------------9-8-7-6-------------9-8-7-6\--|
|----------------------------------------------------------|
|----------------------------------------------------------|

the u contuine the intro stuff here
Suggest correction
Creating personal tab
Creating personal tab
You can edit any tab online and save it as your Personal.

You can edit, replace or remove any tab part or add personal notes – all changes will be seen only by you.

Personal tabs can be accessed anytime from any device, even offline.
Learn more »
Give kudos to tab author, rate the tab!
1 2 3 4 5
comments
print report bad tab
guest
You may want to rate the tab now too:
select rating
Wanna post a correction for this tab? Suggest correction