Oops, an error
Loading. Please wait.

Paradise Lost solo tab

version 1
version 1

Solo

Whole song

4,077 views 1 this week
1 commentread comment
1 2 3 4 5
x 3
add to favorites
×
Save as Personal and add changes to this tab that will be seen only by you. Learn more ›
×
You can save this tab as Personal to edit and correct it or add notes. All changes will be seen only by you. Learn more »
launch autoscroll
font size
0
reset
how to read this tab
guitar tuner
edit
Autoscroll
slow
fast
+/-
esc
set tempo
stop
Author
Difficulty
-----------------------------------------------------------------------------
                           PARADISE LOST - Symphony X
-----------------------------------------------------------------------------

Tabbed by: Alessandro Lo-Presti (Agilo)                        May 22nd, 2007
Email: agilo3@gmail.com


Tuning: tuned down a full step (as is customary for Michael Romeo).



Intro guitar part (think "barre chords" as you play this):

d|----------------------------------------------------------------------|
A|----------------------5--------------8-----7--------------------------|
F|--------0-------------------7--------------------------9-----7--------|
C|-----2-----2/4-----5-----5--------9-----9-----7-----10----10----7-----|
G|----------------5--------------9-----------------10----------------9--|
D|--0-------------------------------------------------------------------|



A really small piece that's thrown into the song at 5:15:

d|-----------0-----------0-----------0-----------0--|
A|--------0-----------0-----------0--------4--------|
F|-----6-----------2-----------1--------4-----4-----|
C|--4-----------4-----------4-----------------------|
G|--------------------------------------------------|
D|--------------------------------------------------|





- - - [ Extra Notes! ] - - -

 I didn't think it was really necessary to place these small tabs here but
 a friend suggested I should anyway..

 Anywho, great song and if anyone has modifications/additions (as I'm sure
 there will be plentry of, in due time); I'm all ears!





| /  slide up
| \  slide down
| h  hammer-on
| p  pull-off
| ~  vibrato
| +  harmonic
| x  Mute note
=============================================================================

            
            
Suggest correction
Creating personal tab
Creating personal tab
You can edit any tab online and save it as your Personal.

You can edit, replace or remove any tab part or add personal notes – all changes will be seen only by you.

Personal tabs can be accessed anytime from any device, even offline.
Learn more »
Give kudos to tab author, rate the tab!
1 2 3 4 5
comments
print report bad tab
1 comment total.
-1 reply
Anarchy_Ant 20 Aug 26, 2007 06:19 PM

This isn't the solo..

guest
You may want to rate the tab now too:
select rating
Wanna post a correction for this tab? Suggest correction