Oops, an error
Loading. Please wait.

Paradise Lost solo tab

version 2
version 2

Solo

Whole song

3,245 views 3 this week
3 commentsread comments
1 2 3 4 5
x 4
add to favorites
×
Save as Personal and add changes to this tab that will be seen only by you. Learn more ›
×
You can save this tab as Personal to edit and correct it or add notes. All changes will be seen only by you. Learn more »
launch autoscroll
font size
0
reset
how to read this tab
guitar tuner
edit
Autoscroll
slow
fast
+/-
esc
set tempo
stop
Difficulty
Hey all, here's a tab of Michael Romeo's solo on the song Paradise Lost of Symphony X. I 
it's very accurate except for that missing bar, I can't figure out what he's doing 
If you can, please email me.

Also, I'd like to make a complete guitar pro tab of this song, if you want to help, 
me. (jester_if@hotmail.com)


The solo ( and all song btw ) is in 25/8.

Rythm Guitar under the solo:
       PM PM PM PM PM PM PM PM PM PM PM PM PM PM PM PM
  Q    E  E  E  E  E  E  E  E  E  E  E  E  E  E  E  E  H        Q.
-----------------------------------------------------------------------|
-----------------------------------------------------------------------|
-----------------------------------------------------------------------|
-------------------------------------------------------9--------8------|
--6----------------------------------------------------7--------6------|
--4----4--4--4--4--4--4--4--4--4--4--4--4--4--4--4--4------------------|


       PM PM PM PM PM PM PM PM PM PM PM PM PM PM PM PM
  Q    E  E  E  E  E  E  E  E  E  E  E  E  E  E  E  E  H        Q.
-----------------------------------------------------------------------|
-----------------------------------------------------------------------|
-----------------------------------------------------------------------|
-------------------------------------------------------9--------8------|
--6----------------------------------------------------7--------6------|
--4----4--4--4--4--4--4--4--4--4--4--4--4--4--4--4--4------------------|


       PM PM PM PM PM PM PM PM PM PM PM PM PM PM PM PM
  Q    E  E  E  E  E  E  E  E  E  E  E  E  E  E  E  E  H        Q.
-----------------------------------------------------------------------|
-----------------------------------------------------------------------|
-----------------------------------------------------------------------|
-------------------------------------------------------9--------8------|
--6----------------------------------------------------7--------6------|
--4----4--4--4--4--4--4--4--4--4--4--4--4--4--4--4--4------------------|


       PM PM PM PM PM PM PM PM PM PM PM PM PM PM PM PM
  Q    E  E  E  E  E  E  E  E  E  E  E  E  E  E  E  E  H        Q.
-----------------------------------------------------------------------|
-----------------------------------------------------------------------|
-----------------------------------------------------------------------|
-------------------------------------------------------9--------8------|
--6----------------------------------------------------7--------6------|
--4----4--4--4--4--4--4--4--4--4--4--4--4--4--4--4--4------------------|


       PM PM PM PM PM PM PM PM PM PM PM PM PM PM PM PM
  Q    E  E  E  E  E  E  E  E  E  E  E  E  E  E  E  E  H        Q.
-----------------------------------------------------------------------|
-----------------------------------------------------------------------|
-----------------------------------------------------------------------|
--4--------------------------------------------------------------------|
--2----2--2--2--2--2--2--2--2--2--2--2--2--2--2--2--2--5--------4------|
-------------------------------------------------------3--------2------|


       PM PM PM PM PM PM PM PM PM PM PM PM PM PM PM PM
  Q    E  E  E  E  E  E  E  E  E  E  E  E  E  E  E  E  H        Q.
-----------------------------------------------------------------------|
-----------------------------------------------------------------------|
-----------------------------------------------------------------------|
--4--------------------------------------------------------------------|
--2----2--2--2--2--2--2--2--2--2--2--2--2--2--2--2--2--5--------4------|
-------------------------------------------------------3--------2------|


       PM PM PM PM PM PM PM PM PM PM PM PM PM PM PM PM
  Q    E  E  E  E  E  E  E  E  E  E  E  E  E  E  E  E  H        Q.
-----------------------------------------------------------------------|
-----------------------------------------------------------------------|
-----------------------------------------------------------------------|
--4--------------------------------------------------------------------|
--2----2--2--2--2--2--2--2--2--2--2--2--2--2--2--2--2--5--------4------|
-------------------------------------------------------3--------2------|


       PM PM PM PM PM PM PM PM PM PM PM PM PM PM PM PM
  Q    E  E  E  E  E  E  E  E  E  E  E  E  E  E  E  E  H        Q.
-----------------------------------------------------------------------|-------||
-----------------------------------------------------------------------|-------||
-----------------------------------------------------------------------|-------||
--4--------------------------------------------------------------------|-------||
--2----2--2--2--2--2--2--2--2--2--2--2--2--2--2--2--2--5--------4------|-------||
-------------------------------------------------------3--------2------|-------||


Now the solo itself:
 W.               W                Q    E  S S  S  S S  S
D||-|------------------------------------------------------------|
A||-|------------------------------------------------------------|
F||-|------------------------------------------------------4h-6s-|
C||-|----------------------------------------------4h-6h-8-------|
G||-|--------------------------------------------8---------------|
D||-|------------------------------------------------------------|
  H.             Q.      Q.      W                 Q     Q     E
---------------------------------------------------------14----16-|
--------------------------------16-----------------L--------------|
--8~------------15------11----------------------------------------|
------------------------------------------------------------------|
------------------------------------------------------------------|
------------------------------------------------------------------|


   H.               H.               Q     E   Q      E   Q     E  Q     Q
------------------------------------------------------------------------------|
--16~-------------------------------------16----------------------------------|
-----------------<>15brb------------13--------13~----11-----------------------|
---------------------------------------------------------11-------------------|
---------------------------------------------------------------13--9~---------|
-------------------------------------------------------------------------9----|


                                                  |-----5----|  etc.
   H.           S   S Q     S  S Q     S  S Q     S  S  S S  S  etc.
----------------------------------------------------------------------------------------------------------------------|
-------------------------------------------------------------------------------------------------------------7h-9h-11-|
----------------9h-11-8~----------------------------------------------------------------6h-8---------6h-8h-9----------|
---------------------------------------8h-9-6~----------------------------------6h-8h-9------6h-8h-9------------------|
----------------------------7h-9-6~---------------9p-7p-6---------------6h-7h-9---------------------------------------|
--11------------------------------------------------------9p-7p-6h-7h-9-----------------------------------------------|


                      W
   |-------5------|
   S    S   S  S  S   H         S  S  S   S  H          S  S   S   S  H
--11h~-12p-11p-9S-7s-16--------21p-17h-19h-21-19~--------23-19h-21h-23-21~--------19h-21-19~----------|
------------------------------------------------------------------------------------------------------|
------------------------------------------------------------------------------------------------------|
------------------------------------------------------------------------------------------------------|
------------------------------------------------------------------------------------------------------|
------------------------------------------------------------------------------------------------------|


   H         E   E   E   E   E   E   E   E   S  S  S  S  S  S  S  S  S  etc.
--19~--------L--14----------------------14--19-14----14-------------------------------------------------------------|
--------------------15--------------15------------15----15----15----------------------------------------------------|
------------------------16------16-------------------------16----16----16-------------------------------------------|
----------------------------16--------------------------------------16----16----16----------14----------16----------|
-----------------------------------------------------------------------------17----17-16-17----17-16-17---------16--|
------------------------------------------------------------------------------------------------------------17------|

                                                                    W
                           |---3--|         |---3--|   |---3--|  |--3--|
   Q.       H.             E   E  E  Q      E   E  E   E  E   E  E  E  E  H.             
H.
---------------------------7----------------7------------------------------------------|
-----------10br---------------10--7------------10--7------7----------------------------|
-------------------------------------9br--------------10-----10--9--7--L--L------------|
---------------------------------------------------------------------------------------|
--14~----------------------------------------------------------------------------------|
---------------------------------------------------------------------------------------|

Wth is he doing here? I need help!


   Q.       Q     E   H.              H           S  S  S  H.             E.
-------------------------------------22b~--------19----19---------------------|-------||
--19~------22----20---------------------------------22----22b~------------L---|-------||
---------------------21b~-----------------------------------------------------|-------||
------------------------------------------------------------------------------|-------||
------------------------------------------------------------------------------|-------||
------------------------------------------------------------------------------|-------||


Duration Legend
---------------
W - whole
H - half
Q - quarter
E - 8th
S - 16th
T - 32nd
X - 64th
. - note dotted
|-n-|  - n-tuplets


Tablature Legend
----------------
L - tied note
x - dead note
g - grace note
(n) - ghost note
> - accentuded note
NH - natural harmonic
AH - artificial harmonic
TH - tapped harmonic
SH - semi harmonic
PH - pitch harmonic
h - hammer on
p - pull off
b - bend
br - bendRelease
pb - preBend
pbr - preBendRelease
brb - bendReleaseBend
\n/ - tremolo bar dip
\n - tremolo bar dive
-/n - tremolo bar Release up
/n\ - tremolo bar inverted dip
/n - tremolo bar return
-\n - tremolo bar Release down
S - shift slide
s - legato slide
/ -  slide into from below or out of upwards
\ -  slide into from above or out of downwards
~ - vibrato
W - wide vibrato
tr - trill
TP - tremolo picking
T - tapping
S - slap
P - pop
< - fade in
^ - brush up
v - brush down

            
            
Suggest correction
Creating personal tab
Creating personal tab
You can edit any tab online and save it as your Personal.

You can edit, replace or remove any tab part or add personal notes – all changes will be seen only by you.

Personal tabs can be accessed anytime from any device, even offline.
Learn more »
comments
print report bad tab
3 comments total.
+1 reply
pigyzoiyg 10 Oct 14, 2007 03:00 AM

dude ur bar adition sucks. whatever youve tabed the solo as it sure as hell isnt 25/8.
a whole a quarter an eight and 8 sixteenth notes do NOT add up to 25/8.

-1 reply
sk8rMeTaLhEaD27 30 Apr 20, 2011 08:01 PM

@plgyzolyg it's a ****ing tab, you tab it then.

0 reply
Simidude 48 Oct 30, 2015 06:14 AM, edited at 10:15 am

Imo it sounds like 6/8 just from listening, no bar addition or anything with a 7/8 every fourth bar

guest
Wanna post a correction for this tab? Suggest correction