Oops, an error
Loading. Please wait.

Sea Of Lies tab

version 2
version 2

Whole song

Interactive

4,620 views 3 this week
1 commentread comment
1 2 3 4 5
x 4
add to favorites
×
Save as Personal and add changes to this tab that will be seen only by you. Learn more ›
×
You can save this tab as Personal to edit and correct it or add notes. All changes will be seen only by you. Learn more »
launch autoscroll
font size
0
reset
how to read this tab
guitar tuner
backing track
0:00
0:00
edit
Autoscroll
slow
fast
+/-
esc
set tempo
stop
Author
(Gtr 1) (D G C F A D) - 'Rhythm'
(Gtr 2) (D G C F A D) - 'Lead'
(Gtr 3) (D G C F A D) - 'Clean'
(Gtr 4) (D G C F A D) - 'Clean 2'
(Gtr 5) (D G C F A D) - 'Lead 2'

[Intro]
  Q=153
                    Db5     G5
 4/4
  (Gtr 1)
  Wx5          H    Q  Q    W
e|------------|------------|----------|
B|------------|------------|----------|
G|------------|------3--3--|-2--------|
D|------------|------1--1--|-2--------|
A|------------|------------|-0--------|
E|------------|------------|----------|

                                      Db5
   +W           +W           +Q   Q   Q  Q
e|------------|------------|------------------|
B|------------|------------|------------------|
G|-(2)--------|-(2)--------|-(2)------3--3----|
D|-(2)--------|-(2)--------|-(2)--5\--1--1----|
A|-(0)--------|-(0)--------|-(0)--------------|
E|------------|------------|------------------|

  G5
  PM----|     PM|     PM----|           PM|     PM|
  S S S S S S S S S S S S S S S S   S S S S S S S S S S S S S S S S
e|---------------------------------|---------------------------------|
B|---------------------------------|---------------------------------|
G|---------------------------------|-----------------3h7p6h7---------|
D|---------7p5-----8p5---------7p5-|-7p5-----8p5-------------5h8p7h8-|
A|-0-0-0-0-----0-0-----0-0-0-0-----|-----0-0-----0-0-----------------|
E|---------------------------------|---------------------------------|

                                                    Db5
  PM----|     PM|     PM----|           PM|     PM|
  S S S S S S S S S S S S S S S S   S S S S S S S S Q  Q
e|---------------------------------|-----------------------|
B|---------------------------------|-----------------------|
G|---------------------------------|-----------------3--3--|
D|---------7p5-----8p5---------7p5-|-7p5-----5p3-----1--1--|
A|-0-0-0-0-----0-0-----0-0-0-0-----|-----0-0-----0-0-------|
E|---------------------------------|-----------------------|

  G5
  PM----|     PM|     PM----|           PM|     PM-------------------
  S S S S S S S S S S S S S S S S   S S S S S S S S s s s s s s s s
e|---------------------------------|---------------------------------|
B|---------------------------------|---------------------------------|
G|---------------------------------|-----------------3-7-6-7---------|
D|---------7p5-----8p5---------7p5-|-7p5-----8p5-------------5-8-7-8-|
A|-0-0-0-0-----0-0-----0-0-0-0-----|-----0-0-----0-0-----------------|
E|---------------------------------|---------------------------------|

 -------|     PM|     PM--------|
  S S S S S S S S S S S S S S S S
e|------------------------------------|
B|------------------------------------|
G|------------------------------------|
D|---------7p5-----8p5----------------|
A|-0-0-0-0-----0-0-----0-0-0-0-0-0----|
E|------------------------------------|

   S  S  S  S S S S S S  S  S  S  S S S S
e|----------------------------------------|
B|-8h11p10h11-----------------------------|
G|------------6h9p7h9-9h12p10h12----------|
D|-------------------------------\5h8p7h8-|
A|----------------------------------------|
E|----------------------------------------|

                                              T                T
   S S S S S S S S S S S S S S S S   S S S S  S S S S S S S S  S S S S
e|---------------------------------|--------------------------------------|
B|---------------------------------|--------------------------------------|
G|-6h9p7h9-------------------------|--------------------------------------|
D|-----------------5h8p7h8---------|------------------5h8p7h8-12p8p7h8----|
A|---------5h8p7h8---------4h7p5h7-|-5h8p7h8-12p8p7h8---------------------|
E|---------------------------------|--------------------------------------|

            T        T
   S S S S  S S S S  S S S S Q
e|------------------------------|
B|------------------------------|
G|-6h9p7h9-12p9p7h9-14p9p7p6h7--|
D|------------------------------|
A|------------------------------|
E|------------------------------|

   T     T          T     T         T    T       T   T
   |------6------|  |-----6------|  |----6-----| |---6---|
   S  S  S  S  S S  S  S  S  S S S  S S  S S S S S S S S E
e|-----------------------------------------------------------|
B|-----------------------------------------------------------|
G|-14p12-14p12p10p9-12p10-12p10p9p7-10p9-10p9p7p6-9p7-9p7p6\-|
D|-----------------------------------------------------------|
A|-----------------------------------------------------------|
E|-----------------------------------------------------------|

[Verse 1]
     E5  D5  F5  E5D5  F5    E5                    E5D5  F5  E5D5  F5
     PM--|       PM|         PM  PM----------|     PM|       PM|
     e e e S S E e e S S   E e E e S S e S S e   E e e S S E e e S S
e|----------------------|---------------------|---------------------|
B|o---------------------|---------------------|---------------------|
G|----------------------|---------------------|---------------------|
D|----------------------|---------------------|---------------------|
A|o-4-4-2-2s5---4-2-2s5-|---4---4-------------|---4-2-2s5---4-2-2s5-|
E|--2-2-0-0s3---2-0-0s3-|---2---2-0-2-3-0-2-3-|---2-0-0s3---2-0-0s3-|

    E5    D5     E5  D5  F5  E5D5  F5    E5
    PM----|      PM--|       PM|         PM  PM----------|
  E q  q  q  E   e e e S S E e e S S   E e E e S S e S S e
e|--------------|---------------------|---------------------|
B|--------------|---------------------|---------------------|
G|--------------|---------------------|---------------------|
D|--------------|---------------------|---------------------|
A|---4--4--2--2-|-4-4-2-2s5---4-2-2s5-|---4---4-------------|
E|---2--2--0--0-|-2-2-0-0s3---2-0-0s3-|---2---2-0-2-3-0-2-3-|

    E5D5  F5  E5D5  F5    E5    D5
    PM|       PM|         PM----|
  E e e S S E e e S S   E q  q  q.
e|---------------------|---------------|
B|---------------------|--------------o|
G|---------------------|---------------|
D|---------------------|---------------|
A|---4-2-2s5---4-2-2s5-|---4--4--2----o|
E|---2-0-0s3---2-0-0s3-|---2--2--0-----|

     E5D5  F5  E5D5E5
     PM|       PM|
   E e e S S E e e E   S S S S S S S S S S S S Q
e|-------------------|----------------------------|
B|-------------------|----------------------------|
G|-------------------|----------------------------|
D|-------------------|----------------------------|
A|---4-2-2s5---4-2-4-|---0-2-4-2-0---0-2-4-2-0-4--|
E|---2-0-0s3---2-0-2-|-2-----------2--------------|

[Guitar Solo 1]
  C5              Cm    C5                                   Db5
 5/4
  (Gtr 1)
    H.             Q     Q       H.                           Q  Q
    |              |     |       |                            |  |
    /              /     /       /                            /  /
  (Gtr 2)
    ~~~~~~~~~~~                                               ~~
                                 |--3---|   |--3--|  |--3--|
    H      +E   E  E  E  E  E    E   E  E   E  E  E  E  E  E  H
e|-----------------------------|-----12-13-/17-13--------------------|
B|-----------------------------|-15---------------15-----------------|
G|--------------------------14-|---------------------14----14-13-----|
D|-/12-----(12)----12-14-15----|------------------------15-----------|
A|--------------12-------------|-------------------------------------|
E|-----------------------------|-------------------------------------|

  D#5                                             D#m
   W                                               Q
   |                                               |
   /                                               /
    S  S  S  S  S  S  S  S  S  S  S  S  S  S  S  S  S  S  S  S
e|-------------------13-16-13----------------13-15-16-13-15-16-|
B|----------------13----------13----------13-------------------|
G|-13-17-13----13----------------13----13----------------------|
D|----------15----------------------15-------------------------|
A|-------------------------------------------------------------|
E|-------------------------------------------------------------|

(Gtr 2)
 |  S  S  S  S  S  S  S  S  S  S  S  S  S  S  S  S  S  S  S  S
e|-------------------16-20-16----------------16-18-20-16-18-20-|
B|----------------18----------18----------18-------------------|
G|-17-22-17----17----------------17----17----------------------|
D|----------18----------------------18-------------------------|
A|-------------------------------------------------------------|
E|-------------------------------------------------------------|

  D#5
    Q            H                       Q           Q
    |            |                       |           |
    /            /                       /           /
     S  S  S  S   S  S  S  S  S  S  S  S  S  S  S  S  S  S  S  S
e|--18-15-16-18--20-18-16-----------------------------------------|
B|------------------------20-18-16-------11--9--8-----------------|
G|---------------------------------18-17----------10--8--6--------|
D|---------------------------------------------------------10--6--|
A|----------------------------------------------------------------|
E|----------------------------------------------------------------|

     S  S  S  S   S  S  S  S  S  S  S  S  S  S  S  S  S  S  S  S
e|-/21-18-20-21-/23-21-20-----------------------------------------|
B|------------------------23-21-20-------14-13-11-----------------|
G|---------------------------------22-20----------13-12-10--------|
D|---------------------------------------------------------13-10--|
A|----------------------------------------------------------------|
E|----------------------------------------------------------------|

[Pre-Chorus]
  G#5       A#5  D#5          B5     C#5  F#5          E5      D5
 7/4                                                  6/4
  (Gtr 1)
                                                                    ~~
  H         Q.   H..          H      Q.   H..          H.      Q  E Q.
e|---------------------------|-----------------------|--------------------|
B|---------------------------|-----------------------|--------------------|
G|-3---------5---------------|-6------8--------------|--------------------|
D|-3---------5----3----------|-6------8----6---------|-4-------2----2\----|
A|-1---------3----3----------|-4------6----6---------|-4-------2----------|
E|----------------1----------|-------------4---------|-2-------0--0-------|

(Gtr 2)
 | Q.   +E   H.         H      W..                      W.
e|---------------------------|-----------------------|--------------------|
B|---------------------------|-----------------------|--------------------|
G|---------------------------|-----------------------|--------------------|
D|-8----(8)\-----------------|-----------------------|--------------------|
A|---------------------------|-----------------------|--------------------|
E|---------------------------|-----------------------|--------------------|

[Chorus]
    G5
   4/4
    PM----|     PM|     PM----|
    S S S S S S S S S S S S S S S S
e|----------------------------------|
B|o---------------------------------|
G|----------------------------------|
D|----------7p5-----8p5---------7p5-|
A|o-0-0-0-0-----0-0-----0-0-0-0-----|
E|----------------------------------|

      PM|     PM|                   PM----|     PM|     PM----|
  S S S S S S S S S S S S S S S S   S S S S S S S S S S S S S S S S
e|---------------------------------|----------------------------------|
B|---------------------------------|----------------------------------|
G|-----------------3h7p6h7---------|----------------------------------|
D|-7p5-----8p5-------------5h8p7h8-|---------7p5-----8p5---------7p5--|
A|-----0-0-----0-0-----------------|-0-0-0-0-----0-0-----0-0-0-0------|
E|---------------------------------|----------------------------------|

                  Db5               Db5
                           5/4
      PM|     PM|           PM----|
  S S S S S S S S Q  Q      S S S S Q  Q  H
e|------------------------|--------------------|
B|-----------------------o|--------------------|
G|-----------------3--3---|---------3--3-------|
D|-7p5-----5p3-----1--1---|---------1--1-------|
A|-----0-0-----0-0-------o|-0-0-0-0------------|
E|------------------------|--------------------|

[Verse 2]
   Em9                            Dsus2
  4/4
(Gtr 3, 4)
   E  E E E  E E Q     W          E E E E E E E E   W
e|------------------|-----------|-----------------|-7----|
B|--------9-10-9----|-----------|---------7-------|------|
G|------9--------9--|-----------|-------9---9---9-|------|
D|---11-------------|-11--------|-----9-------9---|------|
A|-9----------------|-----------|---7-------------|------|
E|------------------|-----------|-----------------|------|

   Am7add6                               Emadd9
   E E E E E E E E    E E E E  E E E E   E  E  E  E E  E  E  E   W
e|-----------------|-------------------|------------9----------|------|
B|---------7-----9-|-10-----9-10-----9-|---------10---10-------|------|
G|-----7-----7-----|----7--------7-----|------13---------13----|------|
D|---9---9-----9---|------9--------9---|---11---------------11-|------|
A|-----------------|-------------------|-9---------------------|-9----|
E|-----------------|-------------------|-----------------------|------|

  Em9                                        Dsus2
  (Gtr 1)
  PM----------------------------------------------------------------------|
  e  e e e  E e e e    E e E e S S e S S e   E e e e e e e e   E q  q  Q  E
e|-------------------|----------------------|-----------------|----------------|
B|-------------------|----------------------|-----------------|----------------|
G|-------------------|----------------------|-----------------|----------------|
D|-------------------|----------------------|-----------------|----------------|
A|-4--4-2-4----4-2-4-|----4---4-2-4-4-2-4-4-|---4-2-4---4-2-4-|---4--4--2--2---|
E|-2--2-0-2----2-0-2-|----2---2-0-2-2-0-2-2-|---2-0-2---2-0-2-|---2--2--0--2---|

(Gtr 3, 4)
 | E  E E E  E E Q      W                     E E E E E E E E   W
e|-------------------|----------------------|-----------------|-7--------------|
B|--------9-10-9-----|----------------------|---------7-------|----------------|
G|------9--------9---|----------------------|-------9---9---9-|----------------|
D|---11--------------|-11-------------------|-----9-------9---|----------------|
A|-9-----------------|----------------------|---7-------------|----------------|
E|-------------------|----------------------|-----------------|----------------|

   Am7add6                              C5
   e e e e e e e e   E e E e  S S e s S E
e|-----------------|----------------------|
B|-----------------|--------------------3-|
G|-----------------|--------------------2-|
D|-----------------|--------------------0-|
A|-4-4-2-4---4-2-4-|---4---4--2-4-4-4-4---|
E|-2-2-0-2---2-0-2-|---2---2--0-2-2-2-2---|

 | E E E E E E E E   E E E E  E   E E   E
e|-----------------|----------------------|
B|---------7-----7-|-9-----9-10-----------|
G|-----7-----7-----|---7----------7-------|
D|---9---9-----9---|-----9----------9-----|
A|-----------------|----------------------|
E|-----------------|----------------------|

                              D#5
   +W           +W            W          +H.       Q
e|------------|------------|----------|---------------|
B|-(3)--------|-(3)--------|----------|---------------|
G|-(2)--------|-(2)--------|----------|---------------|
D|-(0)--------|-(0)--------|-3--------|-(3)-----------|
A|------------|------------|-3--------|-(3)------/8\--|
E|------------|------------|-1--------|-(1)-----------|

 |  W            W            W           W
e|------------|------------|----------|---------------|
B|------------|------------|----------|---------------|
G|------------|------------|----------|---------------|
D|------------|------------|----------|---------------|
A|------------|------------|----------|---------------|
E|------------|------------|----------|---------------|

[Pre-Chorus]
   Ab5  Bb5  Eb5           B5   C#5  F#5          E5      D5
  7/4                                            6/4
                                                                ~~~
   H    Q.   E +H.         H    Q.   E +H.        H.      Q.    Q.
e|----------------------|----------------------|---------------------|
B|----------------------|----------------------|---------------------|
G|-3----5---------------|-6----8---------------|---------------------|
D|-3----5----3-(3)------|-6----8----6-(6)------|-4-------2----/2\----|
A|-1----3----3-(3)------|-4----6----6-(6)------|-4-------2-----------|
E|-----------1-(1)------|-----------4-(4)------|-2-------0-----------|

[Chorus]
     G5
    4/4
     PM----|     PM|     PM----|           PM|     PM|
     S S S S S S S S S S S S S S S S   S S S S S S S S S S S S S S S S
e|----------------------------------|----------------------------------|
B|o---------------------------------|----------------------------------|
G|----------------------------------|-----------------3h7p6h7----------|
D|----------7p5-----8p5---------7p5-|-7p5-----8p5-------------5h8p7h8--|
A|o-0-0-0-0-----0-0-----0-0-0-0-----|-----0-0-----0-0------------------|
E|----------------------------------|----------------------------------|

  PM----|     PM|     PM----|
  S S S S S S S S S S S S S S S S
e|---------------------------------|
B|---------------------------------|
G|---------------------------------|
D|---------7p5-----8p5---------7p5-|
A|-0-0-0-0-----0-0-----0-0-0-0-----|
E|---------------------------------|

(Gtr 2)
 | W
e|---------------------------------|
B|---------------------------------|
G|---------------------------------|
D|---------------------------------|
A|---------------------------------|
E|---------------------------------|

                   C#5                        C#5
       PM|     PM|                PM|     PM|
   S S S S S S S S Q  Q      S  S S S S S S S Q  Q
e|------------------------|-------------------------------|
B|-----------------------o|-------------------------------|
G|-----------------3--3---|------------------3--3---------|
D|-7p5-----5p3-----1--1---|-7p=5-----5p3-----1--1---------|
A|-----0-0-----0-0-------o|------0-0-----0-0--------------|
E|------------------------|-------------------------------|

 | W                         H..                    E
e|------------------------|-------------------------------|
B|-----------------------o|-----------------------15b17===|
G|------------------------|-------------------------------|
D|------------------------|-------------------------------|
A|-----------------------o|-------------------------------|
E|------------------------|-------------------------------|

[Guitar Solo 2]
   D5
     PM------|     PM|        PM------|                 PM|         PM|
     S   S S S S S S S  S  S  S  S  S  S  S  S    S  S  S  S  S  S  S  S  S  S  S  S  S  S  S  S
e|---------------------------------------------|-------------------------------------------------|
B|---------------------------------------------|-------------------------------------------------|
G|---------------------------------------------|-------------------------------------------------|
D|---------------------------------------------|--------------------------3h=7p=6h=7-------------|
A|-------------7p5------8p=5--------------7p=5-|--7p=5--------8p=5--------------------5h=8p=7h=8-|
E|---0---0-0-0-----0-0--------0--0--0--0-------|--------0--0--------0--0-------------------------|

(Gtr 2)
    ~~~~~
 |  +H                  S  S  S  S  S  S  S  S    S  S  S  S  S  S  S  S  S  S  S  S  S  S  S  S
e|---------------------------------------------|-------------------13-16-13----------------16-17-|
B|-(15)r---------------------------------15-18-|-15----------------------------------------------|
G|---------------------13-16-13----13-16-------|----16-13----13-16----------16-13----13-16-------|
D|------------------------------14-------------|----------14----------------------14-------------|
A|---------------------------------------------|-------------------------------------------------|
E|---------------------------------------------|-------------------------------------------------|

   PM------|         PM|         PM---------|
   S  S  S  S  S  S  S  S  S  S  S  S  S    S     S    S
e|-----------------------------------------------------------|
B|-----------------------------------------------------------|
G|-----------------------------------------------------------|
D|-----------------------------------------------------------|
A|--------------7p=5--------8p=5-------------------7p===5----|
E|--0--0--0--0--------0--0--------0--0--0----0---------------|

                                      |--------6---------|
|  S  S  S  S  S  S  S  S  S  S  S  S  S  S    S  S  S    S
e|-19-16-17-19-----------------------------------------------|
B|-------------15-17-18--------------------------------------|
G|----------------------14-16-17-13-14-16-14---13------------|
D|------------------------------------------------15-14---12-|
A|-----------------------------------------------------------|
E|-----------------------------------------------------------|

                                         Ab5
         PM|                PM------|
   S  S  S  S  S    S       S       S     Q                    Q
e|-----------------------------------------------------------------|
B|-----------------------------------------------------------------|
G|-----------------------------------------------------------------|
D|-----------------------------------------3--------------------3--|
A|--7p=5--------5p===3---------------------1--------------------1--|
E|--------0--0---------------0-------0-----------------------------|

                      T          T       T        T           ~~~~
              |-----------7-----------|  |--------7--------|
|  S  S  S  S  S  S    S  S    S  S    S  S  S  S  S  S  S  S  Q
e|------------------------13h==16-19p==16-19p16p13-----------------|
B|-------15h18----------------------------------------------15-----|
G|-------------13h16---19--------------------------19p16p13----16--|
D|-14h18-----------------------------------------------------------|
A|-----------------------------------------------------------------|
E|-----------------------------------------------------------------|

  D5
    PM------|         PM|         PM------|
    S  S  S  S  S  S  S  S  S  S  S  S  S  S  S  S
e|---------------------------------------------------|
B|---------------------------------------------------|
G|---------------------------------------------------|
D|---------------------------------------------------|
A|---------------7p=5--------8p=5--------------7p=5--|
E|---0--0--0--0--------0--0--------0--0--0--0--------|

 ~~~~~~
 |  +E     S  S  S  S  S  S  S  S  S  S  S  S  S  S
e|---------------------------------------------------|
B|---------------------------------------------------|
G|-(16)---------------------13-14-16-14-13----14-13--|
D|-----------------12-14-15----------------15--------|
A|--------12-14-15-----------------------------------|
E|---------------------------------------------------|

          PM|       PM|
    S  S  S  S  S S S S  S S    S    S   S S S    S
e|--------------------------------------------------|
B|--------------------------------------------------|
G|--------------------------------------------------|
D|-----------------------3h7p===6h===7--------------|
A|--7p=5--------8p5----------------------5h8p7h===8-|
E|--------0--0------0-0-----------------------------|

              ~~~
                       |----3----|     |--3---|
|  S  S  S  S  Q        E    E    E     Q      E
e|--------------------------------------------------|
B|-------------------------------------/18-----17---|
G|---------------------------14---17----------------|
D|-15-14-12-15-14-------15--------------------------|
A|--------------------------------------------------|
E|--------------------------------------------------|

   PM-------|       PM---|      PM----|
   S S S    S   S S S    S  S S S S S S   S   S
e|-----------------------------------------------|
B|-----------------------------------------------|
G|-----------------------------------------------|
D|-----------------------------------------------|
A|---------------7p5---------8p5-----------7p==5-|
E|--0-0-0----0-------0----0------0-0-0-0---------|

                            ~~~
  |--3---|     |--3---|
|  Q      E     Q      E    Q.           +E
e|-17-----16---/20-----19---24-----------(24)\---|
B|-----------------------------------------------|
G|-----------------------------------------------|
D|-----------------------------------------------|
A|-----------------------------------------------|
E|-----------------------------------------------|

   S  S  S  S S S S S S  S  S  S  S S S S
e|----------------------------------------|
B|-8h11p10h11-----------------------------|
G|------------6h9p7h9-9h12p10h12----------|
D|-------------------------------\5h8p7h8-|
A|----------------------------------------|
E|----------------------------------------|

                                     C5
   S S S S S S S S S S S S S S S S   W          +W
e|---------------------------------|----------|--------|
B|---------------------------------|-3--------|-(3)----|
G|-6h9p7h9-------------------------|-2--------|-(2)----|
D|-----------------5h8p7h8---------|-0--------|-(0)----|
A|---------5h8p7h8---------4h7p5h7-|----------|--------|
E|---------------------------------|----------|--------|

[Interlude]
    Dm
(Gtr 5)
     T        T                T        T        T                T
     |------6-------| |------6-------|  |------6-------| |-------6--------|
     S  S  S  S  S  S S  S  S  S  S  S  S  S  S  S  S  S S  S  S  S  S    S
e|--15p14p12---------------------12h14-15p14p12---------------------12h==14-|
B|o-------------------------------------------------------------------------|
G|-----------16p12p11p9h11h12-16----------------16p12p11p9h11h12-16---------|
D|--------------------------------------------------------------------------|
A|o-------------------------------------------------------------------------|
E|--------------------------------------------------------------------------|

(Gtr 1)
                                                                 PM---|
|    E        Q                E        Q.                        S    S
e|--------------------------------------------------------------------------|
B|o-------------------------------------------------------------------------|
G|--------------------------------------------------------------------------|
D|---9-------------------------9----------------------------------9----9----|
A|o--7-------------------------7--------------------------------------------|
E|---0-------------------------0--------------------------------------------|

   T        T                T          T        T                T
   |------6-------| |-------6--------|  |------6-------| |------6-------|
   S  S  S  S  S  S S  S  S  S  S    S  S  S  S  S  S  S S  S  S  S  S  S
e|-15p14p12---------------------12h==14-15p14p12---------------------12h14---|
B|---------------------------------------------------------------------------|
G|----------16p12p11p9h11h12-16------------------16p12p11p9h11h12-16---------|
D|---------------------------------------------------------------------------|
A|---------------------------------------------------------------------------|
E|---------------------------------------------------------------------------|

                             PM---|
|  E        Q                S    S     E        E       Q
e|---------------------------------------------------------------------------|
B|---------------------------------------------------------------------------|
G|---------------------------------------------------------------------------|
D|--9-------------------------9----9-----9----------------7------------------|
A|--7------------------------------------7----------------5------------------|
E|--0------------------------------------0-----------------------------------|

  Bb
   T        T                T        T        T                T
   |------6-------| |------6-------|  |------6-------| |-------6--------|
   S  S  S  S  S  S S  S  S  S  S  S  S  S  S  S  S  S S  S  S  S  S    S
e|-15p14p12---------------------12h14-15p14p12---------------------12h==14-|
B|-------------------------------------------------------------------------|
G|----------17p12p11p9h11h12-17----------------17p12p11p9h11h12-17---------|
D|-------------------------------------------------------------------------|
A|-------------------------------------------------------------------------|
E|-------------------------------------------------------------------------|

                                                               PM---|
|  E        Q                E        Q.                        S    S
e|-------------------------------------------------------------------------|
B|-------------------------------------------------------------------------|
G|-------------------------------------------------------------------------|
D|--9-------------------------9----------------------------------9----9----|
A|--7-------------------------7--------------------------------------------|
E|--0-------------------------0--------------------------------------------|

   T        T                T          T        T                 T
   |------6-------| |-------6--------|  |------6-------|  |------6-------|
   S  S  S  S  S  S S  S  S  S  S    S  S  S  S  S  S  S  S  S  S  S  S  S
e|-15p14p12---------------------12h==14-15p14p12----------------------10h12----|
B|-----------------------------------------------------------------------------|
G|----------17p12p11p9h11h12-17------------------17p12p11p=9h11h12-17----------|
D|-----------------------------------------------------------------------------|
A|-----------------------------------------------------------------------------|
E|-----------------------------------------------------------------------------|

                                       PM---------------|
   E        Q                S    S     e        e        Q
e|-----------------------------------------------------------------------------|
B|-----------------------------------------------------------------------------|
G|-----------------------------------------------------------------------------|
D|--9--------------------------------------------------------------------------|
A|--7-------------------------7----7-----7--------9-------10-------------------|
E|--0--------------------------------------------------------------------------|

  C
   T        T                T        T        T                T
   |------6-------| |------6-------|  |------6-------| |-------6--------|
   S  S  S  S  S  S S  S  S  S  S  S  S  S  S  S  S  S S  S  S  S  S    S
e|-14p12p10---------------------10h12-14p12p10---------------------10h==12-|
B|-------------------------------------------------------------------------|
G|----------14p12p11p9h11h12-14----------------14p12p11p9h11h12-14---------|
D|-------------------------------------------------------------------------|
A|-------------------------------------------------------------------------|
E|-------------------------------------------------------------------------|

                                                                PM---|
|  E        Q                E        Q.                        S    S
e|-------------------------------------------------------------------------|
B|-------------------------------------------------------------------------|
G|-------------------------------------------------------------------------|
D|--9-------------------------9----------------------------------9----9----|
A|--7-------------------------7--------------------------------------------|
E|--0-------------------------0--------------------------------------------|

   T        T                T          T        T                T
   |------6-------| |-------6--------|  |------6-------| |------6-------|
   S  S  S  S  S  S S  S  S  S  S    S  S  S  S  S  S  S S  S  S  S  S  S
e|-14p12p10---------------------10h==12-14p12p10---------------------12h14----|
B|----------------------------------------------------------------------------|
G|----------14p12p11p9h11h12-14------------------14p12p11p9h11h12-14----------|
D|----------------------------------------------------------------------------|
A|----------------------------------------------------------------------------|
E|----------------------------------------------------------------------------|

                            PM---|
|  E        Q                S    S     E        E       Q
e|----------------------------------------------------------------------------|
B|----------------------------------------------------------------------------|
G|----------------------------------------------------------------------------|
D|--9-------------------------9----9-----9----------------7-------------------|
A|--7------------------------------------7----------------5-------------------|
E|--0------------------------------------0------------------------------------|

  Dm
   T        T                T        T        T                T
   |------6-------| |------6-------|  |------6-------| |-------6--------|
   S  S  S  S  S  S S  S  S  S  S  S  S  S  S  S  S  S S  S  S  S  S    S
e|-15p14p12---------------------12h14-15p14p12---------------------12h==14-|
B|-------------------------------------------------------------------------|
G|----------16p12p11p9h11h12-16----------------16p12p11p9h11h12-16---------|
D|-------------------------------------------------------------------------|
A|-------------------------------------------------------------------------|
E|-------------------------------------------------------------------------|

                                                               PM---|
|  E        Q                E        Q.                        S    S
e|-------------------------------------------------------------------------|
B|-------------------------------------------------------------------------|
G|-------------------------------------------------------------------------|
D|--9-------------------------9--------------------------------------------|
A|--7-------------------------7--------------------------------------------|
E|--0-------------------------0----------------------------------0----0----|

   T        T                T          T        T                 T
   |------6-------| |-------6--------|  |------6-------|  |------6-------|
   S  S  S  S  S  S S  S  S  S  S    S  S  S  S  S  S  S  S  S  S  S  S  S
e|-15p14p12---------------------12h==14-15p14p12----------------------12h14-----|
B|-----------------------------------------------------------------------------o|
G|----------16p12p11p9h11h12-16------------------16p12p11p=9h11h12-16-----------|
D|------------------------------------------------------------------------------|
A|-----------------------------------------------------------------------------o|
E|------------------------------------------------------------------------------|

                            PM--------------------------|
|  E        Q                S    S     e        e        Q
e|------------------------------------------------------------------------------|
B|-----------------------------------------------------------------------------o|
G|------------------------------------------------------------------------------|
D|--9---------------------------------------------------------------------------|
A|--7-------------------------7----7-----7--------9-------10-------------------o|
E|--0---------------------------------------------------------------------------|

[Guitar Solo 3]
  D5
(Gtr 1)
   W
   |
   /
   (Gtr 2)
                   ~~~         ~~~
    E      +E   E  Q.    S  S  E
e|-------------------------------|
B|-------------------------------|
G|----------------------11-12-11-|
D|-13b14==(13)r13-14-------------|
A|-------------------------------|
E|-------------------------------|

                                       C5
   +W                                   W
    |                                   |
    /                                   /
 ~~~~~~
                             |-3--|
   +Q    S  S  Q       +E   +Q   +E     H     +E   S  S  S  S  S  S
e|-------12-10------------------------|------------------------------|
B|-------------10b12===(10)-(10)r(10)-|-10----(10)-------------13-17-|
G|-(11)-------------------------------|---------------------14-------|
D|------------------------------------|------------15-14-15----------|
A|------------------------------------|------------------------------|
E|------------------------------------|------------------------------|

                                                    D5
  +W                                                W
   |                                                |
   /                                                /
          T
    S  S  S  S  S  S  S  S  S  S  S  S  S  S  S  S   Q  E Q  E  E  E
e|-13-17-20-17-13----------------------------------|-----------------|
B|----------------17-13----------------------------|------8--8-10-10-|
G|----------------------14-------------------------|-9--9------------|
D|-------------------------15-14-------------------|------5--5--7--7-|
A|-------------------------------15-12-------------|-7--7------------|
E|-------------------------------------13-12-13-10-|-----------------|

                     F#5
  +W                 W
   |                 |
   /                 /
                     ~~                    T
                                           |--3--|
   E E  E  E  H      Q.    Q   S  S  S  S  S  S  S
e|--7-7-10-10-12----|-------------------------------|
B|------------------|-------------------------------|
G|--4-4--7--7--9----|-8-----------11-13-11----------|
D|------------------|-------------------------------|
A|------------------|------11--14----------18-14-11-|
E|------------------|-------------------------------|

  +W
   |
   /
            |-------7:5-------|  |--3--|  |--4:3---|        |--3--|
   S  S  S  S  S  S  S  S  S  S  S  S  S  S  S  S  S  S  S  T  T  T
e|----------11-16-14-11----------16-14-11-18-11-14-11----------------|
B|----------------------------------------------------------------12-|
G|----11-13-------------13-11-13----------------------13-11----11----|
D|----------------------------------------------------------13-------|
A|-14----------------------------------------------------------------|
E|-------------------------------------------------------------------|

  B5                   A5
  W                    W
  |                    |
  /                    /
                       ~    PM---------|
                            |-3--| |-3--|
  Q  S S  Q.   E S S   H    E  E E E E  E
e|--------------------|--------------------|
B|--------------------|--------------------|
G|-8--9-8-------8-9-8-|-----------9-8------|
D|--------11----------|-9----9-11-----9----|
A|--------------------|-----------------11-|
E|--------------------|--------------------|

  E/G#
  W
  |
  /
        |----6-----|  |----6-----|
  H     S S S  S S S  S S S  S S S
e|----------------------------------|
B|----------------------------------|
G|--------------------11-9-8--------|
D|------11-9-7-11-9-7--------11-9-7-|
A|-9--------------------------------|
E|----------------------------------|

  G5
   W
   |
   /
   |------6-------|  |------6-------|  |------6-------|  |------6-------|
   S  S  S  S  S  S  S  S  S  S  S  S  S  S  S  S  S  S  S  S  S  S  S  S
e|-------------------------------------17-16-14----------------------------|
B|-------------------17-16-14-------------------17-16-14-------------------|
G|-16-14-13-------------------16-14-13-------------------16-14-13----------|
D|----------16-14-13----------------------------------------------16-14-13-|
A|-------------------------------------------------------------------------|
E|-------------------------------------------------------------------------|

  B5                        A5
  (Gtr 1)
    W                        W
    |                        |
    /                        /
                                              \0.5____|
    ~~~
                  |--3--|
    H     +E   E  E  E  E    Q.    S  S  Q   +E..    +T
e|-/21----(21)-------16-21-|-19----19-21-16--(16)----(16)-|
B|----------------17-------|------------------------------|
G|-------------18----------|------------------------------|
D|-------------------------|------------------------------|
A|-------------------------|------------------------------|
E|-------------------------|------------------------------|

  (Gtr 3)
 |   W                        W
e|-------------------------|------------------------------|
B|-------------------------|------------------------------|
G|-------------------------|------------------------------|
D|-------------------------|------------------------------|
A|-------------------------|------------------------------|
E|-------------------------|------------------------------|


  C5
    W                  +H     H
    |                   |
    /                   /
           ~~~~~~~~~~~~~~~~~
     Q.    E  +H        +W
e|-/22----22-(22)----|-(22)----------------|
B|-------------------|---------------------|
G|-------------------|---------------------|
D|-------------------|---------------------|
A|-------------------|---------------------|
E|-------------------|---------------------|

                             (Gtr 1)
                             PM--------|
                             |-3-| |-3-|
   W                   H     e e e e e e
e|-------------------|---------------------|
B|-------------------|---------------------|
G|-------------------|---------------------|
D|-------------------|---------9-7-5-------|
A|-------------------|---------------9-7-5-|
E|-------------------|---------------------|

[Interlude]
  D5
  (Gtr 1)
   W
   |
   /
  (Gtr 5)
   T        T                T        T        T                T
   |------6-------| |------6-------|  |------6-------| |------6-------|
   S  S  S  S  S  S S  S  S  S  S  S  S  S  S  S  S  S S  S  S  S  S  S
e|-15p14p12---------------------12h14-15p14p12---------------------12h14-|
B|-----------------------------------------------------------------------|
G|----------16p12p11p9h11h12-16----------------16p12p11p9h11h12-16-------|
D|-----------------------------------------------------------------------|
A|-----------------------------------------------------------------------|
E|-----------------------------------------------------------------------|

  (Gtr 2)
 |  ~~~~~~~~~~~~~~~~~~~~~~~~~~~~~~~~~~~~~~~~~~~~~~~~~~~~~~~~~~~~~~~~~~~~~~
 |  W
e|-19--------------------------------------------------------------------|
B|-----------------------------------------------------------------------|
G|-----------------------------------------------------------------------|
D|-----------------------------------------------------------------------|
A|-----------------------------------------------------------------------|
E|-----------------------------------------------------------------------|

  Bb5
    W
    |
    /
    T         T                T        T        T                T
    |-------6-------| |------6-------|  |------6-------| |------6-------|
    S   S  S  S  S  S S  S  S  S  S  S  S  S  S  S  S  S S  S  S  S  S  S
e|--15p=14p12---------------------12h14-15p14p12---------------------10h12--|
B|--------------------------------------------------------------------------|
G|------------17p12p11p9h11h12-17----------------17p12p11p9h11h12-17--------|
D|--------------------------------------------------------------------------|
A|--------------------------------------------------------------------------|
E|--------------------------------------------------------------------------|

 ~~~~~~
 |  +W
e|-(19)---------------------------------------------------------------------|
B|--------------------------------------------------------------------------|
G|--------------------------------------------------------------------------|
D|--------------------------------------------------------------------------|
A|--------------------------------------------------------------------------|
E|--------------------------------------------------------------------------|

  C5
   W
   |
   /
   T        T                T        T        T                T
   |------6-------| |------6-------|  |------6-------| |------6-------|
   S  S  S  S  S  S S  S  S  S  S  S  S  S  S  S  S  S S  S  S  S  S  S
e|-14p12p10---------------------10h12-14p12p10---------------------12h14-|
B|-----------------------------------------------------------------------|
G|----------14p12p11p9h11h12-14----------------14p12p11p9h11h12-14-------|
D|-----------------------------------------------------------------------|
A|-----------------------------------------------------------------------|
E|-----------------------------------------------------------------------|

  D5
   W
   |
   /
   T        T                T        T        T                T
   |------6-------| |------6-------|  |------6-------| |------6-------|
   S  S  S  S  S  S S  S  S  S  S  S  S  S  S  S  S  S S  S  S  S  S  S
e|-15p14p12---------------------12h14-15p14p12---------------------12h14--|
B|------------------------------------------------------------------------|
G|----------16p12p11p9h11h12-16----------------16p12p11p9h11h12-16--------|
D|------------------------------------------------------------------------|
A|------------------------------------------------------------------------|
E|------------------------------------------------------------------------|

  D5open
   W
   |
   /
   T        T                T        T        T                T
   |------6-------| |------6-------|  |------6-------| |------6-------|
   S  S  S  S  S  S S  S  S  S  S  S  S  S  S  S  S  S S  S  S  S  S  S
e|-15p14p12---------------------12h14-15p14p12---------------------12h14-|
B|-----------------------------------------------------------------------|
G|----------16p12p11p9h11h12-16----------------16p12p11p9h11h12-16-------|
D|-----------------------------------------------------------------------|
A|-----------------------------------------------------------------------|
E|-----------------------------------------------------------------------|

  Bb5
   W
   |
   /
   T        T                T        T        T                T
   |------6-------| |------6-------|  |------6-------| |------6-------|
   S  S  S  S  S  S S  S  S  S  S  S  S  S  S  S  S  S S  S  S  S  S  S
e|-15p14p12---------------------12h14-15p14p12---------------------10h12--|
B|------------------------------------------------------------------------|
G|----------17p12p11p9h11h12-17----------------17p12p11p9h11h12-17--------|
D|------------------------------------------------------------------------|
A|------------------------------------------------------------------------|
E|------------------------------------------------------------------------|

   |-----5-----|   |-----5-----|   |-----5-----|   |-----5-----|
   S  S  S  S  S   S  S  S  S  S   S  S  S  S  S   S  S  S  S  S
e|-12-14-12-14-12-\10-12-10-12-10-/12-14-12-14-12-/14-15-14-15-14-|
B|----------------------------------------------------------------|
G|----------------------------------------------------------------|
D|----------------------------------------------------------------|
A|----------------------------------------------------------------|
E|----------------------------------------------------------------|

(Gtr 1)
 |  W
e|----------------------------------------------------------------|
B|----------------------------------------------------------------|
G|--7-------------------------------------------------------------|
D|--7-------------------------------------------------------------|
A|--5-------------------------------------------------------------|
E|----------------------------------------------------------------|


    |-----5------|   |-----5-----|   |-----5-----|   |-----5------|
    S   S  S  S  S   S  S  S  S  S   S  S  S  S  S   S   S  S  S  S
e|-\12--14-12-14-12-/14-15-14-15-14-/17-15-17-15-17-/19--17-19-17-15-|
B|-------------------------------------------------------------------|
G|-------------------------------------------------------------------|
D|-------------------------------------------------------------------|
A|-------------------------------------------------------------------|
E|-------------------------------------------------------------------|

    +H.                                               Q
e|-------------------------------------------------------------------|
B|-------------------------------------------------------------------|
G|--(7)--------------------------------------------------------------|
D|--(7)----------------------------------------------/9\-------------|
A|--(5)--------------------------------------------------------------|
E|-------------------------------------------------------------------|

[Outro]
  D5
  (Gtr 1)
   PM------------|          PM|     PM----|               PM|     PM|
   S       S   S S  S     S S S S S S S S S S S     S   S S S S S S S S S S S S S S S
e|-----------------------------------------------|-------------------------------------|
B|-----------------------------------------------|-------------------------------------|
G|-----------------------------------------------|-------------------------------------|
D|-----------------------------------------------|---------------------3h7p6h7---------|
A|-------------------7p====5-----8p5---------7p5-|---7p==5-----8p5-------------5h8p7h8-|
E|--0-------0---0-0----------0-0-----0-0-0-0-----|---------0-0-----0-0-----------------|

 (Gtr 5)
                                                    >
                    ~~~~~~~~~~~~~~~~~~~~~~~~~~~~~~~~~~~~
   S      +E.       H.                             +W
e|-17b19==(17)r-----17b19========================|=(17)r-------------------------------|
B|-----------------------------------------------|-------------------------------------|
G|-----------------------------------------------|-------------------------------------|
D|-----------------------------------------------|-------------------------------------|
A|-----------------------------------------------|-------------------------------------|
E|-----------------------------------------------|-------------------------------------|

                                                    Ab5
  PM----|     PM|     PM----|
  S S S S S S S S S S S S S S S S   S S S S S S S S Q  Q
e|---------------------------------|------------------------|
B|---------------------------------|------------------------|
G|---------------------------------|------------------------|
D|---------------------------------|-----------------3--3---|
A|---------7p5-----8p5---------7p5-|-7-5-----5-3-----1--1---|
E|-0-0-0-0-----0-0-----0-0-0-0-----|-----0-0-----0-0--------|

 | W                                 W
e|---------------------------------|------------------------|
B|---------------------------------|------------------------|
G|---------------------------------|------------------------|
D|---------------------------------|------------------------|
A|---------------------------------|------------------------|
E|---------------------------------|------------------------|

     D5
     PM----|     PM|     PM----|           PM|     PM|
     S S S S S S S S S S S S S S S S   S S S S S S S S S S S S S S S S
e|----------------------------------|---------------------------------|
B|o---------------------------------|---------------------------------|
G|----------------------------------|---------------------------------|
D|----------------------------------|-----------------3h7p6h7---------|
A|o---------7p5-----8p5---------7p5-|-7p5-----8p5-------------5h8p7h8-|
E|--0-0-0-0-----0-0-----0-0-0-0-----|-----0-0-----0-0-----------------|

                                                    Ab5
  PM----|     PM|     PM----|
  S S S S S S S S S S S S S S S S   S S S S S S S S Q  Q   3x
e|---------------------------------|------------------------|
B|---------------------------------|-----------------------o|
G|---------------------------------|------------------------|
D|---------------------------------|-----------------3--3---|
A|---------7p5-----8p5---------7p5-|-7-5-----5-3-----1--1--o|
E|-0-0-0-0-----0-0-----0-0-0-0-----|-----0-0-----0-0--------|

           Ab5           Ab5
  3/4             4/4
                   |-3-|
   S S S S Q  Q    q q q Q  Q    +W           +W           +W           +W
e|---------------|-------------|------------|------------|------------|--------*|
B|---------------|-------------|------------|------------|------------|--------*|
G|---------------|-------------|------------|------------|------------|--------*|
D|---------3--3--|-------3--3--|-(3)--------|-(3)--------|-(3)--------|-(3)----*|
A|---------1--1--|-------1--1--|-(1)--------|-(1)--------|-(1)--------|-(1)----*|
E|-0-0-0-0-------|-0-0-0-------|------------|------------|------------|--------*|


************************************

| (n)  Ghost note
| \    Slide down
| h    Hammer-on
| p    Pull-off
| PM   Palm mute
| /    Slide up
| s    Slap
| ~    Vibrato
| b    Bend
| >    Accented note
| x    Dead note
| *    Natural harmonic

************************************

            
            
Suggest correction
Creating personal tab
Creating personal tab
You can edit any tab online and save it as your Personal.

You can edit, replace or remove any tab part or add personal notes – all changes will be seen only by you.

Personal tabs can be accessed anytime from any device, even offline.
Learn more »
comments
print report bad tab
1 comment total.
+1 reply
jose763 631 Sep 05, 2006 06:05 PM

great tab

guest
You may want to rate the tab now too:
select rating
Wanna post a correction for this tab? Suggest correction