Oops, an error
Loading. Please wait.

Without You tab

version 1
version 1

Whole song

Interactive

559 views 9 this week
no commentswrite comment
1 2 3 4 5
2 more votes to show rating
add to favorites
×
Save as Personal and add changes to this tab that will be seen only by you. Learn more ›
×
You can save this tab as Personal to edit and correct it or add notes. All changes will be seen only by you. Learn more »
launch autoscroll
font size
0
reset
how to read this tab
guitar tuner
edit
Autoscroll
slow
fast
+/-
esc
set tempo
stop
Author
Tabbed by: Joshua Garcia (joshuag523@aol.com)

Tabs for the song: Without You by Symphony X
Please rate and let me know if you have any corrections. Thank you.


Tuning: D Standard (D G C F A D)


Intro
Guitar 1:
D||------0-----0---------0-----0---0-----0-----0---------0-----0------|
A||------------------------------0---------------------2-----4--------|
F||----2-----1---------2-----1---------2-----1-------2-----4-----2-1--|
C||--4-----4---------4-----4---------4-----4--------------------------| x2
G||-------------------------------------------------------------------|
D||-------------------------------------------------------------------|


Guitar 2:
D||-------------------------------------------------------------------|
A||-------------------------------------------------------------------|
F||--------------------------------------------------2-----4----------|
C||--4-----2---------4-----2---------4-----2---------2-----4----------|
G||--4-----2---------4-----2---------4-----2---------0-----2----------|
D||--2-----0---------2-----0---------2-----0---------------------5-4--|


D||----------------------------------------------------------------------|
A||----------------------------------------------------------------------|
F||--------------------------------------------------2-----4-------------|
C||--4-----2-----------4---2---------4-----2---------2-----4----------4--|
G||--4-----2-----------4---2---------4-----2---------0-----2----------4--|
D||--2-----0-----------2---0---------2-----0---------------------5-4--2--|



Verse
Guitar 1:
D||------0-----0---------0-----0---0-----0-----0---------0-----0------|
A||------------------------------0---------------------2-----4--------|
F||----2-----1---------2-----1---------2-----1-------2-----4-----2-1--|
C||--4-----4---------4-----4---------4-----4--------------------------| x2
G||-------------------------------------------------------------------|
D||-------------------------------------------------------------------|


Guitar 2:
D||-------------------|
A||-------------------|
F||--2-----4----------|
C||--2-----4----------|
G||--0-----2-----2-4--|
D||-------------------|



Pre-Chorus
Guitar 1:
D||----------------------------------|----------------------------------|
A||----------------------------------|----------------------------------|
F||--7--x-7--x-7--------7--x-7--x-7--|----------------------------------|
C||--7--x-7--x-7--------7--x-7--x-7--|--4--x-4--x-4--------4--x-4--x-4--|
G||--5--x-5--x-5--------5--x-5--x-5--|--4--x-4--x-4--------4--x-4--x-4--|
D||----------------------------------|--2--x-2--x-2--------2--x-2--x-2--|


D||----------------------------------|-------------------------------------|
A||----------------------------------|-------------------------------------|
F||----------------------------------|--4--x-4--x-4--------4--x-4--x-4-6~--|
C||--2--x-2--x-2--------2--x-2--x-2--|--4--x-4--x-4--------4--x-4--x-4-6~--|
G||--2--x-2--x-2--------2--x-2--x-2--|--2--x-2--x-2--------2--x-2--x-2-4~--|
D||--0--x-0--x-0--------0--x-0--x-0--|-------------------------------------|


Guitar 2:
D||----------------------------------------|------------------------------------------------------|
A||--7--7-7--7-7--7--7--7--7-7--7-7--7--7--|--10--10-10--10-10--10--10--10--10-10--10-10--10--10--|
F||--7--7-7--7-7--7--7--7--7-7--7-7--7--7--|--11--11-11--11-11--11--11--11--11-11--11-11--11--11--|
C||--7--7-7--7-7--7--7--7--7-7--7-7--7--7--|--11--11-11--11-11--11--11--11--11-11--11-11--11--11--|
G||--5--5-5--5-5--5--5--5--5-5--5-5--5--5--|--9---9--9---9--9---9---9---9---9--9---9--9---9---9---|
D||----------------------------------------|------------------------------------------------------|


D||----------------------------------------|----------------------------------------|
A||--9--9-9--9-9--9--9--9--9-9--9-9--9--9--|--4--4-4--4-4--4--4--4--4-4--4-4--4--4--|
F||--9--9-9--9-9--9--9--9--9-9--9-9--9--9--|--4--4-4--4-4--4--4--4--4-4--4-4--4--4--|
C||--9--9-9--9-9--9--9--9--9-9--9-9--9--9--|--4--4-4--4-4--4--4--4--4-4--4-4--4--4--|
G||--7--7-7--7-7--7--7--7--7-7--7-7--7--7--|--2--2-2--2-2--2--2--2--2-2--2-2--2--2--|
D||----------------------------------------|----------------------------------------|



Chorus
Guitar 1:
D||----------------------------------------------------------------------------------|
A||----------------------------------------------------------------------------------|
F||--------------------------------------------------------------4~--------4~----6~--|
C||--7~--------7~--------4~--------4~--------2~--------2~--------4~--------4~----6~--|
G||--5~--------5~--------4~--------4~--------2~--------2~--------2~--------2~----4~--|
D||--5~--------5~--------2~--------2~--------0~--------0~----------------------------|


D||----------------------------------------------------------------------------------------|
A||----------------------------------------------------------------------------------------|
F||--------------------------------------------------------------4~--------4~--------------|
C||--7~--------7~--------4~--------4~--------2~--------2~--------4~--------4~--------------|
G||--5~--------5~--------4~--------4~--------2~--------2~--------2~--------2~----7-6-(4~)--|
D||--5~--------5~--------2~--------2~--------0~--------0~----------------------------------|


Guitar 2:
D||---------------------------------------------------|
A||--7---7---7---7---7-7-7-7-7---7---7---7---7-7-7-7--|
F||--7---7---7---7---7-7-7-7-7---7---7---7---7-7-7-7--|
C||--7---7---7---7---7-7-7-7-7---7---7---7---7-7-7-7--|
G||--5---5---5---5---5-5-5-5-5---5---5---5---5-5-5-5--|
D||---------------------------------------------------|


D||------------------------------------------------------------|
A||--10---10---10---10---1010101010---10---10---10---10101010--|
F||--11---11---11---11---1111111111---11---11---11---11111111--|
C||--11---11---11---11---1111111111---11---11---11---11111111--|
G||--9----9----9----9----9-9-9-9-9----9----9----9----9-9-9-9---|
D||------------------------------------------------------------|


D||---------------------------------------------------|---------------------------------------------------|
A||--9---9---9---9---9-9-9-9-9---9---9---9---9-9-9-9--|--4---4---4---4---4-4-4-4-4---4---4---4---4-4-4-4--|
F||--9---9---9---9---9-9-9-9-9---9---9---9---9-9-9-9--|--4---4---4---4---4-4-4-4-4---4---4---4---4-4-4-4--|
C||--9---9---9---9---9-9-9-9-9---9---9---9---9-9-9-9--|--4---4---4---4---4-4-4-4-4---4---4---4---4-4-4-4--|
G||--7---7---7---7---7-7-7-7-7---7---7---7---7-7-7-7--|--2---2---2---2---2-2-2-2-2---2---2---2---2-2-2-2--|
D||---------------------------------------------------|---------------------------------------------------|


D||---------------------------------------------------|
A||--7---7---7---7---7-7-7-7-7---7---7---7---7-7-7-7--|
F||--7---7---7---7---7-7-7-7-7---7---7---7---7-7-7-7--|
C||--7---7---7---7---7-7-7-7-7---7---7---7---7-7-7-7--|
G||--5---5---5---5---5-5-5-5-5---5---5---5---5-5-5-5--|
D||---------------------------------------------------|


D||------------------------------------------------------------|
A||--10---10---10---10---1010101010---10---10---10---10101010--|
F||--11---11---11---11---1111111111---11---11---11---11111111--|
C||--11---11---11---11---1111111111---11---11---11---11111111--|
G||--9----9----9----9----9-9-9-9-9----9----9----9----9-9-9-9---|
D||------------------------------------------------------------|


D||---------------------------------------------------|------------------------------|
A||--9---9---9---9---9-9-9-9-9---9---9---9---9-9-9-9--|--4---4---4---4---4-4-4-4-4~--|
F||--9---9---9---9---9-9-9-9-9---9---9---9---9-9-9-9--|--4---4---4---4---4-4-4-4-4~--|
C||--9---9---9---9---9-9-9-9-9---9---9---9---9-9-9-9--|--4---4---4---4---4-4-4-4-4~--|
G||--7---7---7---7---7-7-7-7-7---7---7---7---7-7-7-7--|--2---2---2---2---2-2-2-2-2~--|
D||---------------------------------------------------|------------------------------|



Pre-Verse
Guitar 1:
D||------7-----7---------7-----7---7-----7-----7---------0-----0------|
A||----5-----4---------5-----4---4-----5-----4---------2-----4--------|
F||--6-----6---------6-----6---------6-----6---------2-----4----------|
C||-------------------------------------------------------------------|
G||--------------------------------------------------------------7-6--|
D||-------------------------------------------------------------------|



Verse
Guitar 1:
D||-----------------------------------------------------|---------------------------------------------|
A||-----------------------------------------------------|---------------------------------------------|
F||-----------------------------------------------------|--------------------------------4-----4---4--|
C||--6---------4-----4-------------6-----4-----4-----4--|--6---------4-----4-----------2-----2---2----|
G||--4-4-4-4-4-2-2-2-2-2-2-2-2-4-4-4-4-4-2-2-2-2-2-2-2--|--4-4-4-4-4-2-2-2-2-2-2-2-2-0-----2----------|
D||-----------------------------------------------------|---------------------------------------------|
       . . . .   . .   . . . . . .   . .   . .   . .         . . . .   . .   . . . .


D||-----------------------------------------------------|---------------------------------------------|
A||-----------------------------------------------------|---------------------------------------------|
F||-----------------------------------------------------|--------------------------------4-----4------|
C||--6---------4-----4-------------6-----4-----4-----4--|--6---------4-----4-----------2-----2--------|
G||--4-4-4-4-4-2-2-2-2-2-2-2-2-4-4-4-4-4-2-2-2-2-2-2-2--|--4-4-4-4-4-2-2-2-2-2-2-2-2-0-----2----------|
D||-----------------------------------------------------|----------------------------------------20\--|
       . . . .   . .   . . . . . .   . .   . .   . .         . . . .   . .   . . . .



Breakdown
Guitar 1:
D||-----------------------------------------------|-----------------------------------------------|
A||-----------------------------------------------|---------------------------7-------10---10--9--|
F||-----------------------------------------------|---------------------------x-------x----x---x--|
C||--4--------2----2-----2h4------4----2----2--2--|--4--------2----2-----2h4--7----x--9----9---9--|
G||--4--------2----2-2h4----------4----2----2--2--|--4--------2----2-2h4------5----x--7----7---7--|
D||--2----2-2-0----0--------------2----0----0--0--|--2----2-2-0----0----------5----x--7----7---7--|
          . .                                             . .


D||-----------------------------------------------|-----------------------------------------------|
A||-----------------------------------------------|-----------------------------------------------|
F||-----------------------------------------------|----------------------------------------9------|
C||--4--------2----2-----2h4------4----2----2--2--|--4--------2----2-----2h4--7----x--9----9------|
G||--4--------2----2-2h4----------4----2----2--2--|--4--------2----2-2h4------5----x--7----7-2-4--|
D||--2----2-2-0----0--------------2----0----0--0--|--2----2-2-0----0----------5----x--7----7------|
          . .                                             . .



Pre-Chorus
Guitar 1:
D||----------------------------------|----------------------------------|
A||----------------------------------|----------------------------------|
F||--7--x-7--x-7--------7--x-7--x-7--|----------------------------------|
C||--7--x-7--x-7--------7--x-7--x-7--|--4--x-4--x-4--------4--x-4--x-4--|
G||--5--x-5--x-5--------5--x-5--x-5--|--4--x-4--x-4--------4--x-4--x-4--|
D||----------------------------------|--2--x-2--x-2--------2--x-2--x-2--|


D||----------------------------------|-------------------------------------|
A||----------------------------------|-------------------------------------|
F||----------------------------------|--4--x-4--x-4--------4--x-4--x-4-6~--|
C||--2--x-2--x-2--------2--x-2--x-2--|--4--x-4--x-4--------4--x-4--x-4-6~--|
G||--2--x-2--x-2--------2--x-2--x-2--|--2--x-2--x-2--------2--x-2--x-2-4~--|
D||--0--x-0--x-0--------0--x-0--x-0--|-------------------------------------|


Guitar 2:
D||----------------------------------------|------------------------------------------------------|
A||--7--7-7--7-7--7--7--7--7-7--7-7--7--7--|--10--10-10--10-10--10--10--10--10-10--10-10--10--10--|
F||--7--7-7--7-7--7--7--7--7-7--7-7--7--7--|--11--11-11--11-11--11--11--11--11-11--11-11--11--11--|
C||--7--7-7--7-7--7--7--7--7-7--7-7--7--7--|--11--11-11--11-11--11--11--11--11-11--11-11--11--11--|
G||--5--5-5--5-5--5--5--5--5-5--5-5--5--5--|--9---9--9---9--9---9---9---9---9--9---9--9---9---9---|
D||----------------------------------------|------------------------------------------------------|


D||----------------------------------------|----------------------------------------|
A||--9--9-9--9-9--9--9--9--9-9--9-9--9--9--|--4--4-4--4-4--4--4--4--4-4--4-4--4--4--|
F||--9--9-9--9-9--9--9--9--9-9--9-9--9--9--|--4--4-4--4-4--4--4--4--4-4--4-4--4--4--|
C||--9--9-9--9-9--9--9--9--9-9--9-9--9--9--|--4--4-4--4-4--4--4--4--4-4--4-4--4--4--|
G||--7--7-7--7-7--7--7--7--7-7--7-7--7--7--|--2--2-2--2-2--2--2--2--2-2--2-2--2--2--|
D||----------------------------------------|----------------------------------------|



Chorus
Guitar 1:
D||----------------------------------------------------------------------------------|
A||----------------------------------------------------------------------------------|
F||--------------------------------------------------------------4~--------4~----6~--|
C||--7~--------7~--------4~--------4~--------2~--------2~--------4~--------4~----6~--|
G||--5~--------5~--------4~--------4~--------2~--------2~--------2~--------2~----4~--|
D||--5~--------5~--------2~--------2~--------0~--------0~----------------------------|


D||----------------------------------------------------------------------------------------|
A||----------------------------------------------------------------------------------------|
F||--------------------------------------------------------------4~--------4~--------------|
C||--7~--------7~--------4~--------4~--------2~--------2~--------4~--------4~--------------|
G||--5~--------5~--------4~--------4~--------2~--------2~--------2~--------2~----(7-6-4~)--|
D||--5~--------5~--------2~--------2~--------0~--------0~----------------------------------|


Guitar 2:
D||---------------------------------------------------|
A||--7---7---7---7---7-7-7-7-7---7---7---7---7-7-7-7--|
F||--7---7---7---7---7-7-7-7-7---7---7---7---7-7-7-7--|
C||--7---7---7---7---7-7-7-7-7---7---7---7---7-7-7-7--|
G||--5---5---5---5---5-5-5-5-5---5---5---5---5-5-5-5--|
D||---------------------------------------------------|


D||------------------------------------------------------------|
A||--10---10---10---10---1010101010---10---10---10---10101010--|
F||--11---11---11---11---1111111111---11---11---11---11111111--|
C||--11---11---11---11---1111111111---11---11---11---11111111--|
G||--9----9----9----9----9-9-9-9-9----9----9----9----9-9-9-9---|
D||------------------------------------------------------------|


D||---------------------------------------------------|---------------------------------------------------|
A||--9---9---9---9---9-9-9-9-9---9---9---9---9-9-9-9--|--4---4---4---4---4-4-4-4-4---4---4---4---4-4-4-4--|
F||--9---9---9---9---9-9-9-9-9---9---9---9---9-9-9-9--|--4---4---4---4---4-4-4-4-4---4---4---4---4-4-4-4--|
C||--9---9---9---9---9-9-9-9-9---9---9---9---9-9-9-9--|--4---4---4---4---4-4-4-4-4---4---4---4---4-4-4-4--|
G||--7---7---7---7---7-7-7-7-7---7---7---7---7-7-7-7--|--2---2---2---2---2-2-2-2-2---2---2---2---2-2-2-2--|
D||---------------------------------------------------|---------------------------------------------------|


D||---------------------------------------------------|
A||--7---7---7---7---7-7-7-7-7---7---7---7---7-7-7-7--|
F||--7---7---7---7---7-7-7-7-7---7---7---7---7-7-7-7--|
C||--7---7---7---7---7-7-7-7-7---7---7---7---7-7-7-7--|
G||--5---5---5---5---5-5-5-5-5---5---5---5---5-5-5-5--|
D||---------------------------------------------------|


D||------------------------------------------------------------|
A||--10---10---10---10---1010101010---10---10---10---10101010--|
F||--11---11---11---11---1111111111---11---11---11---11111111--|
C||--11---11---11---11---1111111111---11---11---11---11111111--|
G||--9----9----9----9----9-9-9-9-9----9----9----9----9-9-9-9---|
D||------------------------------------------------------------|


D||---------------------------------------------------|------------------------------|
A||--9---9---9---9---9-9-9-9-9---9---9---9---9-9-9-9--|--4---4---4---4---4-4-4-4-4~--|
F||--9---9---9---9---9-9-9-9-9---9---9---9---9-9-9-9--|--4---4---4---4---4-4-4-4-4~--|
C||--9---9---9---9---9-9-9-9-9---9---9---9---9-9-9-9--|--4---4---4---4---4-4-4-4-4~--|
G||--7---7---7---7---7-7-7-7-7---7---7---7---7-7-7-7--|--2---2---2---2---2-2-2-2-2~--|
D||---------------------------------------------------|------------------------------|



Solo
Guitar 1:
D||-------------------------------------------------------------------------------|
A||-------------------------------------------------------------------------------|
F||--------------------------------------------4-----6--4-6~---'19--'14----'12~\--|
C||--------------2---------------------2---4/6---6-4------------------------------|
G||------2h4---4---4---------2h4-x-4-----4----------------------------------------|
D||--4-4-------------4-3-2h4------------------------------------------------------|
     . .       .   . . .                                       (Tip: Lightly tap the fret wire
                                                                     rather than the fret itself)

D||-----7~--------7~--------------------9---11---12-9------12----14----16----/19--|
A||--/5----5-4~------4--4h5p4-------/9----9----9------12-9----12----12----12------|
F||---------------------------6---------------------------------------------------|
C||-------------------------------------------------------------------------------|
G||-------------------------------------------------------------------------------|
D||-------------------------------------------------------------------------------|


D||--16h19p16-------------------------14-17-16-14----------19b21-19-16-19b22~--|
A||-----------17----------------------------------17-16-14---------------------|
F||--------------16----------------16------------------------------------------|
C||-----------------18----------16---------------------------------------------|
G||--------------------19-14-18------------------------------------------------|
D||----------------------------------------------------------------------------|


D||--/24---21-19-------------------/24---21-19--------------------|
A||--------------21-/24---21-19----------------21-/24---21-19-----|
F||-----------------------------21----------------------------21--|
C||---------------------------------------------------------------|
G||---------------------------------------------------------------|
D||---------------------------------------------------------------|


D||--14w--14-12-11\10-12-14-12-10\9-10-12-10-9--10-8-7--------------5-7-8-7-5--|
A||----------------------------------------------------10-8-7\5-7-8------------|
F||----------------------------------------------------------------------------|
C||----------------------------------------------------------------------------|
G||----------------------------------------------------------------------------|
D||----------------------------------------------------------------------------|


D||----------------------------------------------------------------------|
A||--8-7-5---------5-7-8-7-5---------------------------------------------|
F||--------7-5-4-7-----------7-5-4---------4-7-5-4-----------------------|
C||--------------------------------7-4-5-7---------7-4---------5-7-5-----|
G||----------------------------------------------------7-4/5-7-------*7--|
D||----------------------------------------------------------------------|


D||----------------------------------------------------15-17-17b19~--|
A||------------------------------------15----17----/17---------------|
F||------------------------14----16-12----14----14-------------------|
C||-----9-----12-----14-12----14-------------------------------------|
G||--/7---/10----/12-------------------------------------------------|
D||------------------------------------------------------------------|


D||--19w23~--19-18-17-15-17b19--15--------15---------|
A||---------------------------------17-15----17b20~--|
F||--------------------------------------------------|
C||--------------------------------------------------|
G||--------------------------------------------------|
D||--------------------------------------------------|

     T         T        T                  T        T        T        T        T        T
D||-----------------------------------15h1719p17p15---------------------------------------------------|
A||-----------------------------15h17---------------19p17p15------------------------------------------|
F||--16-p14p12----------11h1216------------------------------16p14p12---------------------------------|
C||------------16p14p12-----------------------------------------------16p14p12------------------------|
G||----------------------------------------------------------------------------14p12p10---------------|
D||-------------------------------------------------------------------------------------14p12p10-12~--|


Guitar 2:
D||-----------------------------------------------------------|
A||-----------------------------------------------------------|
F||--6-6---4------6-6---4---4---4-6-6---4------2-2---4---4-4--|
C||--6-6-x-4------6-6-x-4-x-4-x-4-6-6-x-4------2-2-x-4---4-4--|
G||--4-4-x-2------4-4-x-2-x-2-x-2-4-4-x-2------0-0-x-2---2-2--|
D||------x------------x---x---x-------x------------x----------|


D||-----------------------------------------------------|
A||-----------------------------------------------------|
F||--6-6---4------6-6---4-x-4---4-6-6---4------2-2---4--|
C||--6-6-x-4------6-6-x-4-x-4-x-4-6-6-x-4------2-2-x-4--|
G||--4-4-x-2------4-4-x-2-x-2-x-2-4-4-x-2------0-0-x-2--|
D||------x------------x---x---x-------x------------x----|


D||-------------------------------------------------------------------------|
A||-------------------------------------------------------------------------|
F||--9------7--------------9---7---7---7-9------7---------5------7----------|
C||--9--x-x-7------------x-9-x-7---7---7-9--x-x-7---------5----x-7----------|
G||--7--x-x-5-------5h7--x-7-x-5---5---5-7--x-x-5-----5h7-3----x-5----10-9--|
D||-----x-x-----5h7------x---x--------------x-x---5h7----------x------------|


D||---------------------------------------------------------------------------|
A||---------------------------------------------------------------------------|
F||--9------7--------------9---7---7---7-9------7---------5------7------------|
C||--9--x-x-7------------x-9-x-7---7---7-9--x-x-7---------5----x-7----5-4-2~--|
G||--7--x-x-5-------5h7--x-7-x-5---5---5-7--x-x-5-----5h7-3----x-5----5-4-2~--|
D||-----x-x-----5h7------x---x--------------x-x---5h7----------x------3-2-0~--|



Interlude
Guitar 1 (Fingerpicked):
D||----0------0----0---0-------0----0---0------0----0---0------0---0--|
A||--8------7---10---8------12---10---8------7---10---8------5---7----|
F||-------------------------------------------------------------------|
C||--9------7---11---9------12---11---9------7---11---9------5---7----| x6
G||-------------------------------------------------------------------|
D||-------------------------------------------------------------------|


Guitar 1/2:
D||--------------------------------------|--------------------------------------|
A||----------------------------------2~--|----------------------------------2~--|
F||----------------------------------2~--|----------------------------------2~--|
C||--2~-------x-7~--------2~-------x-2~--|--2~-------x-7~--------2~---x-5-x-2~--| x2
G||--2~-------x-5~--------2~-------x-0~--|--2~-------x-5~--------2~---x-5-x-0~--|
D||--0~-------x-5~--------0~-------x-----|--0~-------x-5~--------0~---x-3-x-----|


D||----------|-----|
A||----------|-----|
F||------6~--|-----|
C||------6~--|--4--|
G||--0-2-4~--|--4--|
C||----------|--2--|


Guitar 1:
D||------0-----0---------0-----0---0-----0-----0---------0-----0--|
A||------------------------------0---------------------2-----4----|
F||----2-----1---------2-----1---------2-----1-------2-----4------|
C||--4-----4---------4-----4---------4-----4----------------------|
G||---------------------------------------------------------------|
D||---------------------------------------------------------------|

Guitar 2:
D||-------------------------------------------------------------------|
A||-------------------------------------------------------------------|
F||--------------------------------------------------2-----4----------|
C||--------------------------------------------------2-x-x-4----------|
G||--------------------------------------------------0-x-x-2-----2-4--|
D||----------------------------------------------------x-x------------|



Chorus / Outro
Guitar 1:
D||----------------------------------------------------------------------------------|
A||----------------------------------------------------------------------------------|
F||--------------------------------------------------------------4~--------4~----6~--|
C||--7~--------7~--------4~--------4~--------2~--------2~--------4~--------4~----6~--| x3
G||--5~--------5~--------4~--------4~--------2~--------2~--------2~--------2~----4~--|
D||--5~--------5~--------2~--------2~--------0~--------0~----------------------------|


D||------------------------------------------------|
A||------------------------------------------------|
F||------------------------------------------------|
C||--7~--------7~--------4~--------4~----------2~--|
G||--5~--------5~--------4~--------4~----------2~--|
D||--5~--------5~--------2~--------2~----------0~--|


Guitar 2:
D||---------------------------------------------------|
A||--7---7---7---7---7-7-7-7-7---7---7---7---7-7-7-7--|
F||--7---7---7---7---7-7-7-7-7---7---7---7---7-7-7-7--|
C||--7---7---7---7---7-7-7-7-7---7---7---7---7-7-7-7--|
G||--5---5---5---5---5-5-5-5-5---5---5---5---5-5-5-5--|
D||---------------------------------------------------|


D||------------------------------------------------------------|
A||--10---10---10---10---1010101010---10---10---10---10101010--|
F||--11---11---11---11---1111111111---11---11---11---11111111--|
C||--11---11---11---11---1111111111---11---11---11---11111111--|
G||--9----9----9----9----9-9-9-9-9----9----9----9----9-9-9-9---|
D||------------------------------------------------------------|


D||---------------------------------------------------|---------------------------------------------------|
A||--9---9---9---9---9-9-9-9-9---9---9---9---9-9-9-9--|--4---4---4---4---4-4-4-4-4---4---4---4---4-4-4-4--|
F||--9---9---9---9---9-9-9-9-9---9---9---9---9-9-9-9--|--4---4---4---4---4-4-4-4-4---4---4---4---4-4-4-4--|
C||--9---9---9---9---9-9-9-9-9---9---9---9---9-9-9-9--|--4---4---4---4---4-4-4-4-4---4---4---4---4-4-4-4--| x3
G||--7---7---7---7---7-7-7-7-7---7---7---7---7-7-7-7--|--2---2---2---2---2-2-2-2-2---2---2---2---2-2-2-2--|
D||---------------------------------------------------|---------------------------------------------------|


D||---------------------------------------------------|
A||--7---7---7---7---7-7-7-7-7---7---7---7---7-7-7-7--|
F||--7---7---7---7---7-7-7-7-7---7---7---7---7-7-7-7--|
C||--7---7---7---7---7-7-7-7-7---7---7---7---7-7-7-7--|
G||--5---5---5---5---5-5-5-5-5---5---5---5---5-5-5-5--|
D||---------------------------------------------------|


D||---------------------------------------------------------------------|
A||--10---10---10---10---1010101010---10-----10-----10-----10-------7~--|
F||--11---11---11---11---1111111111---11-----11-----11-----11-------7~--|
C||--11---11---11---11---1111111111---11-----11-----11-----11-------7~--|
G||--9----9----9----9----9-9-9-9-9----9------9------9------9--------9~--|
D||---------------------------------------------------------------------|




Tablature Legend
----------------
 h   hammer-on
 p   pull-off
 b   bend
 pb  pre-bend
 r   release bend
 ~   hold / vibrato
 .   palm mute
 /   slide up
 \   slide down
 *   pinch harmonic
 '   natural harmonic
 x   mute note
 T   tap

            
            
Suggest correction
Creating personal tab
Creating personal tab
You can edit any tab online and save it as your Personal.

You can edit, replace or remove any tab part or add personal notes – all changes will be seen only by you.

Personal tabs can be accessed anytime from any device, even offline.
Learn more »
Give kudos to tab author, rate the tab!
1 2 3 4 5
comments
print report bad tab
guest
You may want to rate the tab now too:
select rating
Wanna post a correction for this tab? Suggest correction