Oops, an error
Loading. Please wait.

Fear Of Flying Tab

version 2
version 2

Whole song

  • Full complete version with intro, verses, chorus, bridge and outro.

Interactive

24 views 1 this week
no commentswrite comment
1 2 3 4 5
3 more votes to show rating
add to favorites
×
Save as Personal and add changes to this tab that will be seen only by you. Learn more ›
×
You can save this tab as Personal to edit and correct it or add notes. All changes will be seen only by you. Learn more »
save as personal
new!
launch autoscroll
font size
0
reset
how to read this tab
guitar tuner
Autoscroll
slow
fast
+/-
esc
set tempo
stop
Author
Difficulty
intermediate
About this tab version
Full complete version with intro, verses, chorus, bridge and outro. Was this info helpful? Yes No
Title: Fear of Flying
Artist: Symposium
Album: One Day at a Time EP

Philip Tweedie 
Standard tuning
I've tried to give some sense of timing and rhythm but best listen to the song to get accurate timings
________________________________________________________________________________

Intro  
Let ring clean
|----------------------------|----------------------------|
|----------------------------|----------------------------|
|----------------------------|----------------------------| x3
|----------------------------|----------------------------|
|--------7-----6h7------9----|-(9)-7-----6-----7--6--7----|
|--0-------------------------|----------------------------|
                                                          
|----------------------------|----------------------------|
|----------------------------|----------------------------|
|----------------------------|----------------------------|
|--9-----7-----6--------7----|-(7)-6----------------------|
|-----------------9----------|-----------9-----7--6--7----|
|----------------------------|----------------------------|

|----------------------------|----------------------------|
|-----------------------7----|-(7)------------------------|
|--------9-----8h9-----------|-----9-----8-----9--8--9----| x3
|----------------------------|----------------------------|
|----------------------------|----------------------------|
|--0-------------------------|----------------------------|
                                                                              
|--7-------------------------|----------------------------|
|--7-----10----9--7-----10---|-(10)-9-----7---------------|
|----------------------------|-----------------9h8h9------|
|----------------------------|----------------------------|
|----------------------------|----------------------------|
|----------------------------|----------------------------|
________________________________________________________________________________

Main riff
Guitar 1 dist
|---------------------------|----------------------------|
|----------------------7----|--(7)-----------------------|
|-------9-----8h9-----------|-----9-----8-----9--8--9----| x3
|-9-------------------------|----------------------------|
|---------------------------|----------------------------|
|---------------------------|----------------------------|

|--7-------------------------|---------------------------|
|--7-----10----9--7-----10---|-(10)-9-----7--------------|
|----------------------------|-----------------9h8h9-----|
|----------------------------|---------------------------|
|----------------------------|---------------------------|
|----------------------------|---------------------------|

|---------------------------|----------------------------|
|----------------------7----|--(7)-----------------------|
|-------9-----8h9-----------|-----9-----8-----9--8--9----| x3
|-9-------------------------|----------------------------|
|---------------------------|----------------------------|
|---------------------------|----------------------------|

|--7-------------------------|---------------------------|
|--7-----10----9--7-----10---|-(10)-9-----7--------------|
|----------------------------|-----------------9---8-----|
|----------------------------|---------------------------|
|----------------------------|---------------------------|
|----------------------------|---------------------------|

Guitar 2 dist (play x2)
|-----------------|------------------|-----------------|------------------|
|-----------------|------------------|-----------------|------------------|
|-----------------|------------------|-----------------|------------------|
|-2--2-2-2-2-2-2--|-2-2-2-2-2-2-2-2--|-4--4-4-4-4-4-4--|-4-4-4-4-4-4-4-4--|
|-2--2-2-2-2-2-2--|-2-2-2-2-2-2-2-2--|-4--4-4-4-4-4-4--|-4-4-4-4-4-4-4-4--|
|-0--0-0-0-0-0-0--|-0-0-0-0-0-0-0-0--|-2--2-2-2-2-2-2--|-2-2-2-2-2-2-2-2--|

|-----------------|------------------|-----------------|------------------|
|-----------------|------------------|-----------------|------------------|
|-----------------|------------------|-----------------|------------------|
|-6--6-6-6-6-6-6--|-6-6-6-6-6-6-6-6--|-7--7-7-7-7-7-7--|-9-9-9-9-9-9-9-9--|
|-6--6-6-6-6-6-6--|-6-6-6-6-6-6-6-6--|-7--7-7-7-7-7-7--|-9-9-9-9-9-9-9-9--|
|-4--4-4-4-4-4-4--|-4-4-4-4-4-4-4-4--|-5--5-5-5-5-5-5--|-7-7-7-7-7-7-7-7--|
________________________________________________________________________________

Verse 1
Let ring clean
|--------------|--------------|--------------|------------------|
|--------------|--------------|--------------|------------------|
|--------------|--------------|--------------|------------------| X4
|--------------|--------------|--------------|--6--6--6-7-6-7---|
|--7--7--7--7--|--7--7--7--7--|--7--6--6--6--|--0---------------|
|--------------|--------------|--------------|------------------|

You didn't wait for me, I didn't wait for you,
Is that so bad of us I've not a clue.
________________________________________________________________________________

Chorus 1
Guitar 1 dist                            PM----------------|
|-------------------|-------------------|------------------|--------------|
|-------------------|-------------------|------------------|--------------|
|-------6-----------|-------8-----------|------------------|--6--4--6--4--|
|-----7------7------|-----9-------9-----|-2-2-2-2-2-2-2----|--6--6--6--6--|
|---7---------------|---9---------------|-2-2-2-2-2-2-2----|--6--6--6--6--|
|-5-----------------|-7-----------------|-0-0-0-0-0-0-0----|--------------|

|-------------------|-------------------|------------------|------------------|
|-------------------|-------------------|------------------|------------------|
|-------6-----------|-------8-----------|-9-9-9-9-9-9-9-9--|-6-6-4-4-6-6-4-4--|
|-----7------7------|-----9-------9-----|------------------|------------------|
|---7---------------|---9---------------|-7-7-7-7-7-7-7-7--|-4-4-4-4-4-4-4-4--|
|-5-----------------|-7-----------------|------------------|------------------|

                                         PM----------------|
|-------------------|-------------------|------------------|--------------|
|-------------------|-------------------|------------------|--------------|
|-------6-----------|-------8-----------|------------------|--6--4--6--4--|
|-----7------7------|-----9-------9-----|-2-2-2-2-2-2-2----|--6--6--6--6--|
|---7---------------|---9---------------|-2-2-2-2-2-2-2----|--6--6--6--6--|
|-5-----------------|-7-----------------|-0-0-0-0-0-0-0----|--------------|

                                         PM----------------|
|-------------------|-------------------|------------------|--------------|
|-------------------|-------------------|------------------|--------------|
|-------6-----------|-------8-----------|------------------|-9------------|
|-----7------7------|-----9-------9-----|-2-2-2-2-2-2-2-2--|-9------------|
|---7---------------|---9---------------|-2-2-2-2-2-2-2-2--|-7------------|
|-5-----------------|-7-----------------|-0-0-0-0-0-0-0-0--|--------------|

Guitar 2                             PM----------------|
|-----------------|-----------------|------------------|-------------------|
|-----------------|-----------------|------------------|-------------------|
|-----------------|-----------------|------------------|-6-6-6-6-6-6-6-6---|
|-7--7-7-7-7-7-7--|-9--9-9-9-9-9-9--|-2-2-2-2-2-2-2----|-6-6-6-6-6-6-6-6---|
|-7--7-7-7-7-7-7--|-9--9-9-9-9-9-9--|-2-2-2-2-2-2-2----|-4-4-4-4-4-4-4-4---|
|-5--5-5-5-5-5-5--|-7--7-7-7-7-7-7--|-0-0-0-0-0-0-0----|-------------------|

|-----------------|-----------------|------------------|-------------------|
|-----------------|-----------------|------------------|-------------------|
|-----------------|-----------------|-9---9-9-9-9-9-9--|-6-6-6-6-6-6-6-6---|
|-7--7-7-7-7-7-7--|-9--9-9-9-9-9-9--|-9---9-9-9-9-9-9--|-6-6-6-6-6-6-6-6---|
|-7--7-7-7-7-7-7--|-9--9-9-9-9-9-9--|-7---7-7-7-7-7-7--|-4-4-4-4-4-4-4-4---|
|-5--5-5-5-5-5-5--|-7--7-7-7-7-7-7--|------------------|-------------------|

                                     PM----------------|
|-----------------|-----------------|------------------|-------------------|
|-----------------|-----------------|------------------|-------------------|
|-----------------|-----------------|------------------|-6-6-6-6-6-6-6-6---|
|-7--7-7-7-7-7-7--|-9--9-9-9-9-9-9--|-2-2-2-2-2-2-2-2--|-6-6-6-6-6-6-6-6---|
|-7--7-7-7-7-7-7--|-9--9-9-9-9-9-9--|-2-2-2-2-2-2-2-2--|-4-4-4-4-4-4-4-4---|
|-5--5-5-5-5-5-5--|-7--7-7-7-7-7-7--|-0-0-0-0-0-0-0-0--|-------------------|
                                                                                
                                     PM----------------|
|-----------------|-----------------|------------------|-0----|
|-----------------|-----------------|------------------|-0----|
|-----------------|-----------------|------------------|-1----|
|-7--7-7-7-7-7-7--|-9--9-9-9-9-9-9--|-2-2-2-2-2-2-2-2--|-2----|
|-7--7-7-7-7-7-7--|-9--9-9-9-9-9-9--|-2-2-2-2-2-2-2-2--|-2----|
|-5--5-5-5-5-5-5--|-7--7-7-7-7-7-7--|-0-0-0-0-0-0-0-0--|-0----|

It's all so simple when you are away,
I say it, I mean it, even if you don't believe it,
You wrote it, you sent it, who knows if you really meant it,
It's like a fear of flying.
________________________________________________________________________________

Main riff
Guitar 1 dist
|---------------------------|----------------------------|
|----------------------7----|--(7)-----------------------|
|-------9-----8h9-----------|-----9-----8-----9--8--9----| x3
|-9-------------------------|----------------------------|
|---------------------------|----------------------------|
|---------------------------|----------------------------|

|--7-------------------------|---------------------------|
|--7-----10----9--7-----10---|-(10)-9-----7--------------|
|----------------------------|-----------------9h8h9-----|
|----------------------------|---------------------------|
|----------------------------|---------------------------|
|----------------------------|---------------------------|

|---------------------------|----------------------------|
|----------------------7----|--(7)-----------------------|
|-------9-----8h9-----------|-----9-----8-----9--8--9----| x3
|-9-------------------------|----------------------------|
|---------------------------|----------------------------|
|---------------------------|----------------------------|

|--7-------------------------|---------------------------|
|--7-----10----9--7-----10---|-(10)-9-----7--------------|
|----------------------------|-----------------9---8-----|
|----------------------------|---------------------------|
|----------------------------|---------------------------|
|----------------------------|---------------------------|

Guitar 2 dist (play x2)
|-----------------|------------------|-----------------|------------------|
|-----------------|------------------|-----------------|------------------|
|-----------------|------------------|-----------------|------------------|
|-2--2-2-2-2-2-2--|-2-2-2-2-2-2-2-2--|-4--4-4-4-4-4-4--|-4-4-4-4-4-4-4-4--|
|-2--2-2-2-2-2-2--|-2-2-2-2-2-2-2-2--|-4--4-4-4-4-4-4--|-4-4-4-4-4-4-4-4--|
|-0--0-0-0-0-0-0--|-0-0-0-0-0-0-0-0--|-2--2-2-2-2-2-2--|-2-2-2-2-2-2-2-2--|

|-----------------|------------------|-----------------|------------------|
|-----------------|------------------|-----------------|------------------|
|-----------------|------------------|-----------------|------------------|
|-6--6-6-6-6-6-6--|-6-6-6-6-6-6-6-6--|-7--7-7-7-7-7-7--|-9-9-9-9-9-9-9-9--|
|-6--6-6-6-6-6-6--|-6-6-6-6-6-6-6-6--|-7--7-7-7-7-7-7--|-9-9-9-9-9-9-9-9--|
|-4--4-4-4-4-4-4--|-4-4-4-4-4-4-4-4--|-5--5-5-5-5-5-5--|-7-7-7-7-7-7-7-7--|
________________________________________________________________________________

Verse 2
Let ring clean
|--------------|--------------|--------------|------------------|
|--------------|--------------|--------------|------------------|
|--------------|--------------|--------------|------------------| X4
|--------------|--------------|--------------|--6--6--6-7-6-7---|
|--7--7--7--7--|--7--7--7--7--|--7--6--6--6--|--0---------------|
|--------------|--------------|--------------|------------------|

I really wanted to, not scared to show our hate,
Bring back your charms to me, it's not too late.
________________________________________________________________________________

Chorus 2
Guitar 1 dist                            PM----------------|
|-------------------|-------------------|------------------|--------------|
|-------------------|-------------------|------------------|--------------|
|-------6-----------|-------8-----------|------------------|--6--4--6--4--|
|-----7------7------|-----9-------9-----|-2-2-2-2-2-2-2----|--6--6--6--6--|
|---7---------------|---9---------------|-2-2-2-2-2-2-2----|--6--6--6--6--|
|-5-----------------|-7-----------------|-0-0-0-0-0-0-0----|--------------|

|-------------------|-------------------|------------------|------------------|
|-------------------|-------------------|------------------|------------------|
|-------6-----------|-------8-----------|-9-9-9-9-9-9-9-9--|-6-6-4-4-6-6-4-4--|
|-----7------7------|-----9-------9-----|------------------|------------------|
|---7---------------|---9---------------|-7-7-7-7-7-7-7-7--|-4-4-4-4-4-4-4-4--|
|-5-----------------|-7-----------------|------------------|------------------|

                                         PM----------------|
|-------------------|-------------------|------------------|--------------|
|-------------------|-------------------|------------------|--------------|
|-------6-----------|-------8-----------|------------------|--6--4--6--4--|
|-----7------7------|-----9-------9-----|-2-2-2-2-2-2-2----|--6--6--6--6--|
|---7---------------|---9---------------|-2-2-2-2-2-2-2----|--6--6--6--6--|
|-5-----------------|-7-----------------|-0-0-0-0-0-0-0----|--------------|

                                         PM----------------|--------          |
|-------------------|-------------------|------------------|------------------|
|-------------------|-------------------|------------------|------------------|
|-------6-----------|-------8-----------|------------------|------------------|
|-----7------7------|-----9-------9-----|-2-2-2-2-2-2-2-2--|-2-2-2-2-2-2-2-2--|
|---7---------------|---9---------------|-2-2-2-2-2-2-2-2--|-2-2-2-2-2-2-2-2--|
|-5-----------------|-7-----------------|-0-0-0-0-0-0-0-0--|-0-0-0-0-0-0-0-0--|

Guitar 2                             PM----------------|
|-----------------|-----------------|------------------|-------------------|
|-----------------|-----------------|------------------|-------------------|
|-----------------|-----------------|------------------|-6-6-6-6-6-6-6-6---|
|-7--7-7-7-7-7-7--|-9--9-9-9-9-9-9--|-2-2-2-2-2-2-2----|-6-6-6-6-6-6-6-6---|
|-7--7-7-7-7-7-7--|-9--9-9-9-9-9-9--|-2-2-2-2-2-2-2----|-4-4-4-4-4-4-4-4---|
|-5--5-5-5-5-5-5--|-7--7-7-7-7-7-7--|-0-0-0-0-0-0-0----|-------------------|

|-----------------|-----------------|------------------|-------------------|
|-----------------|-----------------|------------------|-------------------|
|-----------------|-----------------|-9---9-9-9-9-9-9--|-6-6-6-6-6-6-6-6---|
|-7--7-7-7-7-7-7--|-9--9-9-9-9-9-9--|-9---9-9-9-9-9-9--|-6-6-6-6-6-6-6-6---|
|-7--7-7-7-7-7-7--|-9--9-9-9-9-9-9--|-7---7-7-7-7-7-7--|-4-4-4-4-4-4-4-4---|
|-5--5-5-5-5-5-5--|-7--7-7-7-7-7-7--|------------------|-------------------|

                                     PM----------------|
|-----------------|-----------------|------------------|-------------------|
|-----------------|-----------------|------------------|-------------------|
|-----------------|-----------------|------------------|-6-6-6-6-6-6-6-6---|
|-7--7-7-7-7-7-7--|-9--9-9-9-9-9-9--|-2-2-2-2-2-2-2-2--|-6-6-6-6-6-6-6-6---|
|-7--7-7-7-7-7-7--|-9--9-9-9-9-9-9--|-2-2-2-2-2-2-2-2--|-4-4-4-4-4-4-4-4---|
|-5--5-5-5-5-5-5--|-7--7-7-7-7-7-7--|-0-0-0-0-0-0-0-0--|-------------------|
                                                                                
                                     PM----------------|
|-----------------|-----------------|------------------|------------------|
|-----------------|-----------------|------------------|------------------|
|-----------------|-----------------|------------------|------------------|
|-7--7-7-7-7-7-7--|-9--9-9-9-9-9-9--|-2-2-2-2-2-2-2-2--|-2-2-2-2-2-2-2-2--|
|-7--7-7-7-7-7-7--|-9--9-9-9-9-9-9--|-2-2-2-2-2-2-2-2--|-2-2-2-2-2-2-2-2--|
|-5--5-5-5-5-5-5--|-7--7-7-7-7-7-7--|-0-0-0-0-0-0-0-0--|-0-0-0-0-0-0-0-0--|

It's all so simple when you are away,
I say it, I mean it, even if you don't believe it,
You wrote it, you sent it, who knows if you really meant it,
It's like a fear of flying.
________________________________________________________________________________

Bridge
Guitar 1 x4
|---------------------|---------------------|---------------------|
|---------------------|---------------------|---------------------|
|-11--11-14--14-14-14-|-11--11-14--14-14-14-|-16--16-11--11-11-11-|
|---------------------|---------------------|---------------------|
|-9---9--12--12-12-12-|-9---9--12--12-12-12-|-14--14-9---9--9--9--|
|---------------------|---------------------|---------------------|

|---------------------|
|---------------------|
|-16--16-11--11-11-11-|
|---------------------|
|-14--14-9---9--9--9--|
|---------------------|

Guitar 2 x4
|----------------|----------------|----------------|----------------|
|----------------|----------------|----------------|----------------|
|-7--7-7--7-7-7--|-7--7-7--7-7-7--|-4--4-4--4-4-4--|-4--4-4--4-4-4--|
|-7--7-7--7-7-7--|-7--7-7--7-7-7--|-4--4-4--4-4-4--|-4--4-4--4-4-4--|
|-5--5-5--5-5-5--|-5--5-5--5-5-5--|-2--2-2--2-2-2--|-2--2-2--2-2-2--|
|----------------|----------------|----------------|----------------|
________________________________________________________________________________

Chorus 3
Guitar 1 dist                            PM----------------|
|-------------------|-------------------|------------------|--------------|
|-------------------|-------------------|------------------|--------------|
|-------6-----------|-------8-----------|------------------|--6--4--6--4--|
|-----7------7------|-----9-------9-----|-2-2-2-2-2-2-2----|--6--6--6--6--|
|---7---------------|---9---------------|-2-2-2-2-2-2-2----|--6--6--6--6--|
|-5-----------------|-7-----------------|-0-0-0-0-0-0-0----|--------------|

|-------------------|-------------------|------------------|------------------|
|-------------------|-------------------|------------------|------------------|
|-------6-----------|-------8-----------|-9-9-9-9-9-9-9-9--|-6-6-4-4-6-6-4-4--|
|-----7------7------|-----9-------9-----|------------------|------------------|
|---7---------------|---9---------------|-7-7-7-7-7-7-7-7--|-4-4-4-4-4-4-4-4--|
|-5-----------------|-7-----------------|------------------|------------------|

                                         PM----------------|
|-------------------|-------------------|------------------|--------------|
|-------------------|-------------------|------------------|--------------|
|-------6-----------|-------8-----------|------------------|--6--4--6--4--|
|-----7------7------|-----9-------9-----|-2-2-2-2-2-2-2----|--6--6--6--6--|
|---7---------------|---9---------------|-2-2-2-2-2-2-2----|--6--6--6--6--|
|-5-----------------|-7-----------------|-0-0-0-0-0-0-0----|--------------|

                                         PM----------------|--------          |
|-------------------|-------------------|------------------|------------------|
|-------------------|-------------------|------------------|------------------|
|-------6-----------|-------8-----------|------------------|------------------|
|-----7------7------|-----9-------9-----|-2-2-2-2-2-2-2-2--|-2-2-2-2-2-2-2-2--|
|---7---------------|---9---------------|-2-2-2-2-2-2-2-2--|-2-2-2-2-2-2-2-2--|
|-5-----------------|-7-----------------|-0-0-0-0-0-0-0-0--|-0-0-0-0-0-0-0-0--|

Guitar 2                             PM----------------|
|-----------------|-----------------|------------------|-------------------|
|-----------------|-----------------|------------------|-------------------|
|-----------------|-----------------|------------------|-6-6-6-6-6-6-6-6---|
|-7--7-7-7-7-7-7--|-9--9-9-9-9-9-9--|-2-2-2-2-2-2-2----|-6-6-6-6-6-6-6-6---|
|-7--7-7-7-7-7-7--|-9--9-9-9-9-9-9--|-2-2-2-2-2-2-2----|-4-4-4-4-4-4-4-4---|
|-5--5-5-5-5-5-5--|-7--7-7-7-7-7-7--|-0-0-0-0-0-0-0----|-------------------|

|-----------------|-----------------|------------------|-------------------|
|-----------------|-----------------|------------------|-------------------|
|-----------------|-----------------|-9---9-9-9-9-9-9--|-6-6-6-6-6-6-6-6---|
|-7--7-7-7-7-7-7--|-9--9-9-9-9-9-9--|-9---9-9-9-9-9-9--|-6-6-6-6-6-6-6-6---|
|-7--7-7-7-7-7-7--|-9--9-9-9-9-9-9--|-7---7-7-7-7-7-7--|-4-4-4-4-4-4-4-4---|
|-5--5-5-5-5-5-5--|-7--7-7-7-7-7-7--|------------------|-------------------|

                                     PM----------------|
|-----------------|-----------------|------------------|-------------------|
|-----------------|-----------------|------------------|-------------------|
|-----------------|-----------------|------------------|-6-6-6-6-6-6-6-6---|
|-7--7-7-7-7-7-7--|-9--9-9-9-9-9-9--|-2-2-2-2-2-2-2-2--|-6-6-6-6-6-6-6-6---|
|-7--7-7-7-7-7-7--|-9--9-9-9-9-9-9--|-2-2-2-2-2-2-2-2--|-4-4-4-4-4-4-4-4---|
|-5--5-5-5-5-5-5--|-7--7-7-7-7-7-7--|-0-0-0-0-0-0-0-0--|-------------------|
                                                                                
                                     PM----------------|
|-----------------|-----------------|------------------|------------------|
|-----------------|-----------------|------------------|------------------|
|-----------------|-----------------|------------------|------------------|
|-7--7-7-7-7-7-7--|-9--9-9-9-9-9-9--|-2-2-2-2-2-2-2-2--|-2-2-2-2-2-2-2-2--|
|-7--7-7-7-7-7-7--|-9--9-9-9-9-9-9--|-2-2-2-2-2-2-2-2--|-2-2-2-2-2-2-2-2--|
|-5--5-5-5-5-5-5--|-7--7-7-7-7-7-7--|-0-0-0-0-0-0-0-0--|-0-0-0-0-0-0-0-0--|

It's all so simple when you are away,
I say it, I mean it, even if you don't believe it,
It's like a fear of flying,
It's like a fear of flying.
________________________________________________________________________________

Main riff
Guitar 1 dist
|---------------------------|----------------------------|
|----------------------7----|--(7)-----------------------|
|-------9-----8h9-----------|-----9-----8-----9--8--9----| x3
|-9-------------------------|----------------------------|
|---------------------------|----------------------------|
|---------------------------|----------------------------|

|--7-------------------------|---------------------------|
|--7-----10----9--7-----10---|-(10)-9-----7--------------|
|----------------------------|-----------------9h8h9-----|
|----------------------------|---------------------------|
|----------------------------|---------------------------|
|----------------------------|---------------------------|

|---------------------------|----------------------------|
|----------------------7----|--(7)-----------------------|
|-------9-----8h9-----------|-----9-----8-----9--8--9----| x3
|-9-------------------------|----------------------------|
|---------------------------|----------------------------|
|---------------------------|----------------------------|

|--7-------------------------|---------------------------|
|--7-----10----9--7-----10---|-(10)-9-----7--------------|
|----------------------------|-----------------9---8-----|
|----------------------------|---------------------------|
|----------------------------|---------------------------|
|----------------------------|---------------------------|

Guitar 2 dist (play x2)
|-----------------|------------------|-----------------|------------------|
|-----------------|------------------|-----------------|------------------|
|-----------------|------------------|-----------------|------------------|
|-2--2-2-2-2-2-2--|-2-2-2-2-2-2-2-2--|-4--4-4-4-4-4-4--|-4-4-4-4-4-4-4-4--|
|-2--2-2-2-2-2-2--|-2-2-2-2-2-2-2-2--|-4--4-4-4-4-4-4--|-4-4-4-4-4-4-4-4--|
|-0--0-0-0-0-0-0--|-0-0-0-0-0-0-0-0--|-2--2-2-2-2-2-2--|-2-2-2-2-2-2-2-2--|

|-----------------|------------------|-----------------|------------------|
|-----------------|------------------|-----------------|------------------|
|-----------------|------------------|-----------------|------------------|
|-6--6-6-6-6-6-6--|-6-6-6-6-6-6-6-6--|-7--7-7-7-7-7-7--|-9-9-9-9-9-9-9-9--|
|-6--6-6-6-6-6-6--|-6-6-6-6-6-6-6-6--|-7--7-7-7-7-7-7--|-9-9-9-9-9-9-9-9--|
|-4--4-4-4-4-4-4--|-4-4-4-4-4-4-4-4--|-5--5-5-5-5-5-5--|-7-7-7-7-7-7-7-7--|
________________________________________________________________________________

Outro clean
|----------------------------|----------------------------|
|-----------------------7----|-(7)------------------------|
|--------9-----8h9-----------|-----9-----8-----9--8--9----| x3
|----------------------------|----------------------------|
|----------------------------|----------------------------|
|--0-------------------------|----------------------------|
                                                                              
|--7-------------------------|----------------------------|-0---------------|
|--7-----10----9--7-----10---|-(10)-9-----7---------------|-0---------------|
|----------------------------|-----------------9---8------|-1---------------|
|----------------------------|----------------------------|-2---------------|
|----------------------------|----------------------------|-2---------------|
|----------------------------|----------------------------|-0---------------|
________________________________________________________________________________



Enjoy
Please rate and leave constructive comments/feedback
Suggest correction
Give kudos to tab author, rate the tab!
1 2 3 4 5
comments
print report bad tab
guest
You may want to rate the tab now too:
select rating
Wanna post a correction for this tab? Suggest correction