Oops, an error
Loading. Please wait.

Ashem Guilty Tab

version 1
version 1

Whole song

Interactive

409 views 1 this week
no commentswrite comment
1 2 3 4 5
please rate
add to favorites
launch autoscroll
font size
0
reset
how to read this tab
guitar tuner
Autoscroll
slow
fast
+/-
esc
set tempo
stop
Help us to improve Ultimate-Guitar.com Take our survey!
×
Difficulty
intermediate
Synergia - Ashem
by Gabriel Salinger L. 
gabrielsalinger@gmail.com
___________________________________________________

Intro: (Just Guitar 1)

1)------------------------------------------------------|
2)------------------------------------------------------|
3)----------------------------2-2--2-2--2-4--4-4--4-4-4-|
4)-4-4--4-4--4-5--5-5--5-5-5--2-2--2-2--2-4--4-4--4-4-4-| X2
5)-2-2--2-2--2-2--2-2--2-2-2--2-2--2-2--2-2--2-2--2-2-2-|
6)------------------------------------------------------|

1)------------------------------------------------------|
2)------------------------------------------------------|
3)------------------------------------------------------|
4)------------------------------------------------------|
5)-4-4--4-4--4-5--5-5--5-5-5--4-4--4-5--5-7--7-7--7-7-7-|
6)-3-3--3-3--3-3--3-3--3-3-3--3-3--3-3--3-3--3-3--3-3-3-|

1)------------------------------------------------------|
2)------------------------------------------------------|
3)------------------------------------------------------|
4)------------------------------------------------------|
5)-7-7--7-7--7-9--9-9--9-9-9--7-7--7-7--7-9--9-9--9-9-9-|
6)-5-5--5-5--5-5--5-5--5-5-5--5-5--5-5--5-5--5-5--5-5-5-|

1)------------------------------------------------------|
2)------------------------------------------------------|
3)------------------------------------------------------|
4)------------------------------------------------------|
5)-2-2--2-2--2-2--2-2--2-2-2--4-4--4-4--4-5--5-5--5-5-5-|
6)-0-0--0-0--0-0--0-0--0-0-0--2-2--2-2--2-2--2-2--2-2-2-|

1)------------------------------------------------------|
2)------------------------------------------------------|
3)------------------------------------------------------|
4)----------------------------4-4--4-4--4-7--7-7--7-7-7-|
5)-5-5--5-5--5-7--7-7--7-7-7--0-0--0-0--0-0--0-0--0-0-0-|
6)-3-3--3-3--3-3--3-3--3-3-3----------------------------|

1)---------------------------|
2)---------------------------|
3)-4-4--4-4--4-4--4-4--4-4-4-|
4)-4-4--4-4--4-4--4-4--4-4-4-|
5)-2-2--2-2--2-2--2-2--2-2-2-|
6)---------------------------|



Chorus:
Gm Bm A Em
Achshav giliti she ani ashem
Gm Bm D5/C# D5
Ani choshev al ze ve lo noshem

Gm Bm
Rotzeh la'ga'at bach ve at rechoka
A Em Gm Bm D5/C# D5
Rotzeh la'da't she at lo bocha



Verse: (Just Guitar 2)
Nira li sha at asit ha kol,ha kol be
chavana, Ratzit yoter mimeni ve ani be mevucha


Pre-Chorus: (With PM)
Em Gm D5 A
Ze lo she lo nisiti ani ratziti ken lihiyot beyachad
Em Gm Bm D5 (Let ring)
Ani af ve at otzeret ve mesaperet she ze ani ve shuv tai'ti


Chorus:
Gm Bm A Em
Achshav giliti she ani ashem
Gm Bm D5/C# D5
Ani choshev al ze ve lo noshem

Gm Bm
Rotzeh la'ga'at bach ve at rechoka
A Em Gm Bm D5/C# D5
Rotzeh la'da't she at lo bocha


Verse: (Just guitar 2)
Kiviti she ulay tir'i et ha tov she bi
Aval at lo rotzah et ma she yesh li lehavi


Pre-Chorus: (With PM)
Em Gm D5 A
Hashavti she asiti aval hayiti ze she mekave
Em Gm
She at tamid tihi kan, tisha'ari kan,
Bm D5 (Let ring)
Ve at pitom holechet


Chorus:
Em
Achshav giliti she ani ashem
Gm Bm D5/C# D5
Ani choshev al ze ve lo noshem

Gm Bm
Rotzeh la'ga'at bach ve at rechoka
A Em Gm Bm D5/C# D5
Rotzeh la'da't she at lo bocha

Interlude:
(It's equal to the intro)


Chorus:
Gm Bm A Em
Achshav giliti she ani ashem
Gm Bm D5/C# D5
Ani choshev al ze ve lo noshem

Gm Bm
Rotzeh la'ga'at bach ve at rechoka
A Em Gm Bm D5/C# D5
Rotzeh la'da't she at lo bocha


Chorus:
Gm Bm A Em
Achshav giliti she ani ashem
Gm Bm D5/C# D5
Ani choshev al ze ve lo noshem

Gm Bm
Rotzeh la'ga'at bach ve at rechoka
A Em Gm Bm D5/C# D5
Rotzeh la'da't she at lo bocha


Gm Bm A Em
Gm A D5/C# D5
Suggest correction new What's this?
You can suggest a correction to this tab. Community and Mods will review your correction and vote to approve or reject it.
comments
We did not receive enough feedback on this tab! Please rate:
print report bad tab
1 2 3 4 5
guest
You may want to rate the tab now too:
select rating
Please do not post tabs as comments. Select "correction" instead!