Oops, an error
Loading. Please wait.

Add Tab

version 3
version 3
969 views 3 this week
no commentswrite comment
1 2 3 4 5
accurate
x 4
add to favorites
launch autoscroll
font size
0
reset
how to read this tab
guitar tuner
Autoscroll
slow
fast
+/-
esc
set tempo
stop
Help us to improve Ultimate-Guitar.com Take our survey!
×
System of a Down
A.D.D

Intro/Pre-Chorus
D||-----------------------------------|
A||-15-15-15-15-15-15-15^-15-15-15-15-|
F||-----------------------------------|
C||-----------------------------------|
G||-----------------------------------|
C||-----------------------------------|

|-------------------||---------|
|-------------------||---------|
|*-7-------------7-*||---------|
|*-7-------------7-*||---------|
|--5-------------5--||-3-5-6-5-|
|--x-0-0-0-0-0-0-x--||---------|

|--------------------------------|
|--------------------------------|
|--------------------------------|
|-1/-7/-0/-6/-11/-5/-------------|
|-1/-7/-0/-6/-11/-5/-------------|
|-1/-7/-0/-6/-11/-5/-0-0-0-0-0-0-|

Fill (Harmonics)
|-----|
|-----|
|-----|
|-7-5-|
|-----|
|-----|

|------------------------------|
|------------------------------|
|10--9--12--10--14--12--15--14-|
|-x--x---x---x---x---x---x---x-|
|-8--7--10---8--12--10--13--12-|
|-x--x---x---x---x---x---x---x-|

Mr. Jack

Intro 
D|-----|----|----|----|-----|
A|-8-7-|--7-|-10-|-12-|-15--|
F|-----|*-7-|-10-|-12-|-15-*|
C|-----|*---|----|----|----*|
G|-----|----|----|----|-----|
C|-----|----|----|----|-----|


---------------------------------------|
---------------------------------------|
---------------------------------------|
-0--7--3--8-7-8-7-----0--7--3--8-7-8-8-|
-0--7--3--8-7-8-7-----0--7--3--8-7-8-8-|
-0--7--3--8-7-8-7-----0--7--3--8-7-8-8-|
                                                                              

--------------------------------------|
--------------------------------------|
--------------------------------------|
--0--7--3--8-7-8-7-----0--7--3--8-7-8-|
--0--7--3--8-7-8-7-----0--7--3--8-7-8-|
--0--7--3--8-7-8-7-----0--7--3--8-7-8-|
pm................     ...............                                         


-----13-----12----10----10--11-10-------8-----8----10----10----10---|
--------------------------------------------------------------------|
-----10------9-----7-----7---8--7-------5-----5-----7-----7-----7---|
-0-0----0-0----0-0---0-0---0------0-0-0---0-0---0-0---0-0---0-0---0-|
--------------------------------------------------------------------|
--------------------------------------------------------------------|
                                                                              
------------------------|
------------------------|
------------------------|
-0-0--7-7--3-3--8-7-8---|
-0-0--7-7--3-3--8-7-8---|
-0-0--7-7--3-3--8-7-8---|

-------------------|
-------------------|
-------------------|
-0-0--7-7--3-3--8--|
-0-0--7-7--3-3--8--|
-0-0--7-7--3-3--8--|

                                                                              
-------------------------------------------------------------|
-------------------------------------------------------------|
-------------------------------------------------------------|
-0-1-0--0-1-0--------------------0-1-0--0-1-0----------------|
-0-1-0--0-1-0--------------------0-1-0--0-1-0----------------|
-0-1-0--0-1-0--000000--000000----0-1-0--0-1-0--0-0-0--0-0-0--|

--------------------------------------------------------|
--------------------------------------------------------|
--------------------------------------------------------|
-0-1-0--0-1-0--------------------0-1-0--0-1-0-----------|
-0-1-0--0-1-0--------------------0-1-0--0-1-0-----------|
-0-1-0--0-1-0--000000--000000----0-1-0--0-1-0--0-0-0-0--|
                                                                              
---------------------|
---------------------|
---------------------|
-------7---7-3-3-3-8-|
-------7---7-3-3-3-8-|
-0-000-7---7-3-3-3-8-|
                                                                              
------------|
------------|
------------|
-0--7--3--8-|
-0--7--3--8-|
-0--7--3--8-|
Suggest correction
comments
print report bad tab
guest
You may want to rate the tab now too:
select rating
Wanna post a correction for this tab? Suggest correction