Oops, an error
Loading. Please wait.

Add Tab

version 5
version 5
4,103 views 3 this week
2 commentsread comments
1 2 3 4 5
excellent!
x 7
add to favorites
launch autoscroll
font size
0
reset
how to read this tab
guitar tuner
Tab Pro tools
  • play this tab
  • loop segment
  • change instrument
  • show fretboard
  • metronome
Autoscroll
slow
fast
+/-
esc
set tempo
stop
Contributor
Band: System of a Down
Song: ADD
Album: Steal this album

standard system of a down tuning CGCFAD
*= Natual Harmonic
b= Bend                                                      play last time
INTRO
     play 3X                                   3X                      \/
D|-------------------------------------------|------------------------|------|
A|-------------------------------------------|------------------------|------|
F|--19--19-19-19-19--19-19b20-19-19-19-19-19-|--19b20-19-19--19-19-19-|19b20-|
C|-------------------------------------------|------------------------|------|
G|-------------------------------------------|------------------------|------|
C|-------------------------------------------|------------------------|------|

D|--------------------------------------------------------------------------|
A|--------------------------------------------------------------------------|
F|--------------------------------------------------------------------------|
C|--12-----------12------------12------------12-----------------------------|
G|--12--0-0-0-0--12--0-0--0-0--12--0-0--0-0--12-----------------------------|
C|--12--0-0-0-0--12--0-0--0-0--12--0-0--0-0--12--10-12-13-------------------|
pm      . . . .      . .  . .      . .  . .
D|--------------------------------------------------------------------------|
A|--------------------------------------------------------------------------|
F|--------------------------------------------------------------------------|
C|---1--1-1--1-1-1--7--7-7--7-7-7--0--0-0--0-0-0--6--6-6--6-6-6--11--11-11--|
G|---1--1-1--1-1-1--7--7-7--7-7-7--0--0-0--0-0-0--6--6-6--6-6-6--11--11-11--|
C|---1--1-1--1-1-1--7--7-7--7-7-7--0--0-0--0-0-0--6--6-6--6-6-6--11--11-11--|

D|--------------------------------------------------------------------------|
A|------------------------------PALM MUTE-----------------------------------|
F|-----------------------------------|--------------------------------------|
C|-11-11-11--5--5-5--5-5-5----------\/--------------------------------------|
G|-11-11-11--5--5-5--5-5-5---00000000000000000------------------------------|
C|-11-11-11--5--5-5--5-5-5---00000000000000000------------------------------|

Verses
(Play each of this chords 8 times, just 1 and 2 and 3 and 4 and beat)
D|--------------------------------------------------------------------------|
A|--------------------------------------------------------------------------|
F|-10---9----12---10----14----12----15----14--------------------------------|
C|-x----x----x----x-----x-----x-----x-----x---------------------------------|
G|-8----7----10---8-----12----10----13----12--------------------------------|
C|--------------------------------------------------------------------------|

Prechorus

D|---------------------------------------------------------------------------|
A|---------------------------------------------------------------------------|
F|------19b20----PLAY THIS LIKE 7 TIMES THEN--1919191919---------------------|
C|---------------------------------------------------------------------------|
G|-0-00----------------------------------------------------------------------|
C|-0-00----------------------------------------------------------------------|
pm . ..
CHORUS
D|--------------------------------------------------------------------------|
A|--------------------------------------------------------------------------|
F|--------------------------------------------------------------------------|
C|---1--1-1--1-1-1--7--7-7--7-7-7--0--0-0--0-0-0--6--6-6--6-6-6--11--11-11--|
G|---1--1-1--1-1-1--7--7-7--7-7-7--0--0-0--0-0-0--6--6-6--6-6-6--11--11-11--|
C|---1--1-1--1-1-1--7--7-7--7-7-7--0--0-0--0-0-0--6--6-6--6-6-6--11--11-11--|

D|--------------------------------------------------------------------------|
A|--------------------------------------------------------------------------|
F|---------------------------------------*7---------------------------------|
C|-11-11-11--5--5-5--5-5-5--------*7----------------------------------------|
G|-11-11-11--5--5-5--5-5-5----0-0----0-0------------------------------------|
C|-11-11-11--5--5-5--5-5-5----0-0----0-0------------------------------------|
pm                            . .    . .
AFTER 2ND CHORS PLAY THIS

     Right now  right now
D|--------------------------------------------------------------------------|
A|--------------------------------------------------------------------------|
F|-------------*7-----------------------------------------------------------|
C|--*7----------------------------------------------------------------------|
G|--------------------------------------------------------------------------|
C|--------------------------------------------------------------------------|

then you just play the chorus riff with no lyrics then another verse then a prechorus 
then a final chorus and repeat the right now harmonic part with the palm muting in between 
couple extra times
i know all the timing may bot be right but i mean its the right notes
alright thats it
comments
print report bad tab
2 comments total.
0 reply
Valium wrote on March 13 2010, 03:31 pm

does anyone noticed that there is the main-riff of darts in this song? anyway good tab

0 reply
yoman666 wrote on July 29 2011, 12:31 pm

not quite, but almsot. :D

I want to post or [tab]
guest
You may want to rate the tab now too:
select rating
Please do not post tabs as comments. Select "correction" instead!