Oops, an error
Loading. Please wait.

Aerials Bass Tab

version 1
version 1
153,110 views 171 this week
72 commentsread comments
1 2 3 4 5
accurate
x 82
add to favorites
launch autoscroll
font size
0
reset
guitar tuner
Autoscroll
slow
fast
+/-
esc
set tempo
stop
Help us to improve Ultimate-Guitar.com Take our survey!
×
Author
System of a Down: Aerials
Tabbed by: Badassbassist (Me)


[Chorus]

Life is a waterfall 
F|-------------------------------------------------------------------------------|
C|-------------------------------------------------------------------------------|
G|----------------------------------------------10---------8---------7---------5-|
C|8--8--8-8-8--8--8-8-8--8--8-8-8-8-8-8-0-0-0-0----0-0-0-0---0-0-0-0---0-0-0-0---|


[Verse]

Aerials in the sky...
F|--------------------------------------|
C|--------------------------------------|
G|--------------------------------------|
C|3-2-0----5-3-2----2-3-5-7-8-5-3-2-0---|


[Chorus]

Life is a waterfall 
F|-------------------------------------------------------------------------------|
C|-------------------------------------------------------------------------------|
G|----------------------------------------------10---------8---------7---------5-|
C|8--8--8-8-8--8--8-8-8--8--8-8-8-8-8-8-0-0-0-0----0-0-0-0---0-0-0-0---0-0-0-0---|

(on the second time you do this you play)

F|------------------------------------|
C|------------------------------------|
G|------------------------------------|
C|8--8--8-8-8-8-8-7-7-7-7-7-7-7-7-7-7-|

[Verse]

Aerials in the sky...
F|---------------------------------------|
C|---------------------------------------|
G|---------------------------------------|
C|3-2-0----5-3-2----2-3-5-7-8-7-5-3-2-0--|

[Outro]
Suggest correction
comments
print report bad tab
72 comments total. Showing first comments. show 1 bad comment
+5 reply
run4fun832 90 wrote on March 2 2003, 12:00 am

FINALLY!!!!!!!!!!!!!!!!!!!!!!!!!!!!!!!!!!
a good tab
thanx man

+1 reply
Dromar 70 wrote on March 17 2003, 12:00 am

this is the most correct of all 4

when i play it tho, i play the verse on the higher C string (2nd string), i think it blends better

good job

guest
You may want to rate the tab now too:
select rating
Wanna post a correction for this tab? Suggest correction