Oops, an error
Loading. Please wait.

Aerials Bass Tab

version 2
14,091 views 9 this week
24 commentsread comments
1 2 3 4 5
x 37
add to favorites
launch autoscroll
font size
0
reset
guitar tuner
Autoscroll
slow
fast
+/-
esc
set tempo
stop
Help us to improve Ultimate-Guitar.com Take our survey!
×
  intro
G)-3-2-00000-5-3-22222-3-5-7-8-7-5-3-2-00000(
D)------------------------------------------(
A)------------------------------------------(
D)------------------------------------------(

G)0-12-10-77777-14-10-77777-12-14-15-17-15-14-12-10-12-(
D)-----------------------------------------------------(
A)-----------------------------------------------------(
D)-----------------------------------------------------(

  verse
G)---------------------------------(
D)---------------------------------(
A) 8~  8~  8~  8~  8~  8~  8~  8~  (
D)---------------------------------(

G)-----10-----8------7------5(
D)---------------------------(
A)-0000---0000---0000---0000-(
D)---------------------------(
Pm)----( )----( )----( )----(

  Chorus
G)-3-2-00000-5-3-22222-3-5-7-8-7-5-3-2-00000(
D)------------------------------------------(
A)------------------------------------------(
D)------------------------------------------(

  bridge    (fingerplucked)
G)------------------------------------(
D)------------------------------------(
A)------------------------------------(
D)-3-2-0----5-3-2----3-5-7-8-7-5-3-2-0(
Suggest correction
comments
print report bad tab
24 comments total. Showing first comments.
+1 reply
gurrgLD.50 360 May 08, 2002 12:00 AM

this is shit man..

0 reply
Clamp 20 May 09, 2002 12:00 AM

you suck bitch

0 reply
Bassknot 10 Sep 13, 2002 12:00 AM

intro
G)-3-2-0-0000-5-3-2-2222-3-5-7-8-7-5-3-2-0-0000(
D)------------------------------------------(
A)------------------------------------------(
D)------------------------------------------(

G)0-12-10-7-7777-14-10-7-7777-12-14-15-17-15-14-12-10-12-(
D)-----------------------------------------------------(
A)-----------------------------------------------------(
D)-----------------------------------------------------(

verse
G)---------------------------------(
D)---------------------------------(
A)8--8--8--8--8--8--8--8--8--8--- (
D)---------------------------------(

G)-----10-----8------7------5(
D)---------------------------(
A)-0000---0000---0000---0000-(
D)---------------------------(
Pm)----( )----( )----( )----(

Chorus
G)-3-2-0-0000-5-3-2-2222-3-5-7-8-7-5-3-2-0-0000(
D)------------------------------------------(
A)------------------------------------------(
D)------------------------------------------(

bridge (fingerplucked)
G)------------------------------------(
D)------------------------------------(
A)------------------------------------(
D)-3-2-0----5-3-2----3-5-7-8-7-5-3-2-0(

guest
You may want to rate the tab now too:
select rating
Wanna post a correction for this tab? Suggest correction