Oops, an error
Loading. Please wait.

Aerials Tab

version 5
15,562 views 21 this week
7 commentsread comments
1 2 3 4 5
x 16
add to favorites
launch autoscroll
font size
0
reset
how to read this tab
guitar tuner
Autoscroll
slow
fast
+/-
esc
set tempo
stop
Help us to improve Ultimate-Guitar.com Take our survey!
×
Author
#----------------------------------PLEASE NOTE---------------------------------#
#This file is the author's own work and represents their interpretation of the #
#song. You may only use this file for private study, scholarship, or research. #
#------------------------------------------------------------------------------##


Gtr I (C G C F A D) - 'Strings arranged for guitar'
Gtr II (C G C F A D) - 'Clean'
Gtr III (C G C F A D) - 'Distortion'
Gtr IV (C G C F G C) - 'Acoustic'

 Intro
  Freely Q=120                     H=H
 4/4
  Gtr I
  W          W          W          W
|----------:----------:----------:------|
|----------:----------:----------:------|
|-7--------:----------:-5--------:------|
|----------:-8--------:----------:-7----|
|-5--------:----------:-3--------:------|
|----------:-8--------:----------:-7----|


  Moderately Fast Q=162
  Gtr II
  E E E E E E E E   E E E E E E E E   E E E E E E E E   E E E E E E E E
|-----------------|-----------------|-----------------|-----------------|
|-----------------|-----------------|-----------------|-----------------|
|-----------------|-----------------|-----------------|-----------------|
|-----0-----0-----|-0-----0-----0---|-----0-----0-----|-0-----0-----0---|
|---0-----0-----0-|-----0-----0-----|---0-----0-----0-|-----0-----0-----|
|-3-----2-----0---|---0-----0-----0-|-5-----3-----2---|---2-----2-----2-|


  Gtr I
                                                   <
  W                 W                 H.           Q     +W
|-----------------|-----------------|------------------|-------------------|
|-----------------|-----------------|--------------8---|-(8)---------------|
|-----------------|-----------------|------------------|-------------------|
|-----------------|-----------------|--------------5---|-(5)---------------|
|-----------------|-----------------|------------------|-------------------|
|-----------------|-----------------|------------------|-------------------|
|
| Gtr II
| E E E E E E E E   E E E E E E E E   E  E E E E E E E    E  E E E E E E E
|-----------------|-----------------|------------------|-------------------|
|-----------------|-----------------|------------------|-------------------|
|-----------------|-----------------|------------------|-------------------|
|-----0-----0-----|-0-----0---0-----|------0-----0-----|--0------0-----0---|
|---0-----0-----0-|-----0---------0-|----0-----0-----0-|-------0-----0-----|
|-3-----5-----7---|---8-----7---5---|-3------2-----0---|-----0-----0-----0-|


   ~~~~~~~~~~~~~~~~~~~~~~~~~~~~~~~~~~~~~~~
   W                   +W
|-10----------------|-(10)---------------|
|-------------------|--------------------|
|--7----------------|--(7)---------------|
|-------------------|--------------------|
|-------------------|--------------------|
|-------------------|--------------------|
|
|  E E E  E E E E E     E  E E E E E E E
|-------------------|--------------------|
|-------------------|--------------------|
|-------------------|--------------------|
|------0------0-----|---0------0-----0---|
|----0------0-----0-|--------0-----0-----|
|-12-----10-----7---|------7-----7-----7S|


 ~~~~~~~~~~~~~~~~~~~~~~~~~
   W                  +W
|--8----------------|-(8)----------------|
|-------------------|--------------------|
|--5----------------|-(5)----------------|
|-------------------|--------------------|
|-------------------|--------------------|
|-------------------|--------------------|
|
|  E E E  E E E E E    E  E E E E E E E
|-------------------|--------------------|
|-------------------|--------------------|
|-------------------|--------------------|
|------0------0-----|--0------0-----0----|
|----0------0-----0-|-------0-----0------|
|-14-----10-----7---|-----7-----7-----7S=|


   ~~~~~~~~~~~~~~~~~~~~~~~~~~~~~~~~~~~~~~~~~~
   W                   +W
|--------------------|----------------------|
|--6-----------------|-(6)------------------|
|--------------------|----------------------|
|--3-----------------|-(3)------------------|
|--------------------|----------------------|
|--------------------|----------------------|
|
|  E E E  E E E  E E    E   E E E  E E  E E
|--------------------|----------------------|
|--------------------|----------------------|
|--------------------|----------------------|
|------0------0------|--0-------0----0------|
|----0------0------0-|--------0-----------0-|
|-12-----14-----15---|-----17-----15---14---|


 ~~~~~~~~~~~~~~~~~~~~~~~~~
   W                  +W
|-------------------|----------------------||
|--8----------------|-(8)------------------||
|-------------------|----------------------||
|--5----------------|-(5)------------------||
|-------------------|----------------------||
|-------------------|----------------------||
|
|                          <
|  E  Q   E Q   E E   +E   Q   E  E  E  Q
|-------------------|----------------------||
|-------------------|----------------------||
|-------------------|----------------------||
|-------------------|-----12--12-12-12-12--||
|-----------0-----0-|-(0)--0---0--0--0--0--||
|-12-12S=10----12---|-----12--12-12-12--0--||


   Verse
    $
    Gtrs III, IV
    H    Q  E E   +E  E Q  E E E E   H    Q  E E   +E  E Q  E E E E
||--------------|------------------|-------------|-------------------|
||o-------------|------------------|-------------|-------------------|
||--------------|------------------|-------------|-------------------|
||--8----8--8-8-|-(8)-8-8--8-8-8-8-|-8----8--8-8-|-(8)-8-8--8-8-8-8--|
||o-8----8--8-8-|-(8)-8-8--8-8-8-8-|-8----8--8-8-|-(8)-8-8--8-8-8-8--|
||--8----8--8-8-|-(8)-8-8--8-8-8-8-|-8----8--8-8-|-(8)-8-8--8-8-8-8--|


  PM----|         PM----|         PM----|        PM----|
  E E E E  H      E E E E  H      E E E E H      E E E E H     3x
|---------------|---------------|--------------|---------------||
|---------------|---------------|--------------|--------------o||
|---------12----|---------10----|---------9----|---------7-----||
|---------------|---------------|--------------|---------------||
|-0-0-0-0-10----|-0-0-0-0--8----|-0-0-0-0-7----|-0-0-0-0-5----o||
|-0-0-0-0-------|-0-0-0-0-------|-0-0-0-0------|-0-0-0-0-------||


                                                         To Coda
  H    Q  E E   +E  E Q  E E E E   H    Q  E E   +E  E Q  E E E E
|-------------|------------------|-------------|------------------|
|-------------|------------------|-------------|------------------|
|-------------|------------------|-------------|------------------|
|-8----8--8-8-|-(8)-8-8--8-8-8-8-|-8----8--8-8-|-(8)-8-8--8-8-8-8-|
|-8----8--8-8-|-(8)-8-8--8-8-8-8-|-8----8--8-8-|-(8)-8-8--8-8-8-8-|
|-8----8--8-8-|-(8)-8-8--8-8-8-8-|-8----8--8-8-|-(8)-8-8--8-8-8-8-|


   Chorus
    Gtr II
    E E E E E E E E   E E E E E E E E   E E E E E E E E   E E E E E E E E
||------------------|-----------------|-----------------|------------------|
||o-----------------|-----------------|-----------------|------------------|
||------------------|-----------------|-----------------|------------------|
||------0-----0-----|-0-----0-----0---|-----0-----0-----|-0-----0-----0----|
||o---0-----0-----0-|-----0-----0-----|---0-----0-----0-|-----0-----0------|
||--3-----2-----0---|---0-----0-----0-|-5-----3-----2---|---2-----2-----2--|
|
|   Gtr IV
|   E E E E E E E E   E E E E E E E E   E E E E E E E E   E E E E E E E E
||------0-----0-----|-0-----0-----0---|-----0-----0-----|-0-----0-----0----|
||o---0-----0-----0-|-----0-----0-----|---0-----0-----0-|-----0-----0------|
||------------------|-----------------|-----------------|------------------|
||--3-----2-----0---|---0-----0-----0-|-5-----3-----2---|---2-----2-----2--|
||o-----------------|-----------------|-----------------|------------------|
||------------------|-----------------|-----------------|------------------|


  1.
  E E E E E E E E   E E E E E E E E   E E E E E E E E   E E E E E E E E
|-----------------|-----------------|-----------------|------------------||
|-----------------|-----------------|-----------------|-----------------o||
|-----------------|-----------------|-----------------|------------------||
|-----0-----0-----|-0-----0---0-----|-----0-----0-----|-0-----0-----0----||
|---0-----0-----0-|-----0---------0-|---0-----0-----0-|-----0-----0-----o||
|-3-----5-----7---|---8-----7---5---|-3-----2-----0---|---0-----0-----0--||
|
| E E E E E E E E   E E E E E E E E   E E E E E E E E   E E E E E E E E
|-----0-----0-----|-0-----0---------|-----0-----0-----|-0-----0-----0----||
|---0-----0-----0-|-----0-----0---0-|---0-----0-----0-|-----0-----0-----o||
|-----------------|-----------------|-----------------|------------------||
|-3-----5-----7---|---8-----7---5---|-3-----2-----0---|---0-----0-----0--||
|-----------------|-----------------|-----------------|-----------------o||
|-----------------|-----------------|-----------------|------------------||


  2.
                                                          D.S. al Coda
  E E E E E E E E   E E E E E E E E   E E E E E E E E   Q   E E +E  E E E
|-----------------|-----------------|-----------------|-------------------||
|-----------------|-----------------|-----------------|-----0-0-(0)-------||
|-----------------|-----------------|-----------------|-----0-0-(0)-------||
|-----0-----0-----|-0-----0---0-----|-----0-----0-----|-0-----------------||
|---0-----0-----0-|-----0---------0-|---0-----0-----0-|-------------0-0-0-||
|-3-----5-----7---|---8-----7---5---|-3-----2-----0---|-------------0-0-0-||
|
| E E E E E E E E   E E E E E E E E   E E E E E E E E   E E E E  Q    Q
|-----0-----0-----|-0-----0---------|-----0-----0-----|-0-----0--0--------||
|---0-----0-----0-|-----0-----0---0-|---0-----0-----0-|-----0-------------||
|-----------------|-----------------|-----------------|-------------------||
|-3-----5-----7---|---8-----7---5---|-3-----2-----0---|---0---------------||
|-----------------|-----------------|-----------------|-------------------||
|-----------------|-----------------|-----------------|-------------------||


  &
  Gtr III
                              PM---------------------|
  Q  Q  Q  Q    Q  Q  Q  Q    Q  Q  Q  Q    Q  Q  Q  Q
|-------------|-------------|-------------|-------------||
|-------------|-------------|-------------|-------------||
|-------------|-------------|-------------|-------------||
|-7--7--7--7--|-7--7--7--7--|-7--7--7--7--|-7--7--7--7--||
|-7--7--7--7--|-7--7--7--7--|-7--7--7--7--|-7--7--7--7--||
|-7--7--7--7--|-7--7--7--7--|-7--7--7--7--|-7--7--7--7--||


   Interlude
    Q.   Q.   Q    +H     E E E E   Q.   Q.   Q    +H     Q  E E
||---------------|----------------|--------------|----------------|
||o--------------|----------------|--------------|----------------|
||---------------|----------------|--------------|----------------|
||--3----2----0--|-(0)------------|-5----3----2--|-(2)----2--2-2--|
||o-3----2----0--|-(0)------------|-5----3----2--|-(2)----2--2-2--|
||--3----2----0--|-(0)----0-0-0-0-|-5----3----2--|-(2)----2--2-2--|


  Q.   Q.   Q    +E  Q.   Q  Q    Q.   Q.   Q    +H      H      3x
|--------------|----------------|--------------|----------------||
|--------------|----------------|--------------|---------------o||
|--------------|----------------|--------------|----------------||
|-3----5----7--|-(7)-8----7--5--|-3----2----0--|-(0)------------||
|-3----5----7--|-(7)-8----7--5--|-3----2----0--|-(0)-----------o||
|-3----5----7--|-(7)-8----7--5--|-3----2----0--|-(0)----12\-----||


   Out-Chorus
    Gtr II
    E E E E E E E E   E E E E E E E E   E E E E E E E E   E E E E E E E E
||------------------|-----------------|-----------------|------------------|
||o-----------------|-----------------|-----------------|------------------|
||------------------|-----------------|-----------------|------------------|
||------0-----0-----|-0-----0-----0---|-----0-----0-----|-0-----0-----0----|
||o---0-----0-----0-|-----0-----0-----|---0-----0-----0-|-----0-----0------|
||--3-----2-----0---|---0-----0-----0-|-5-----3-----2---|---2-----2-----2--|
|
|   Gtr IV
|   E E E E E E E E   E E E E E E E E   E E E E E E E E   E E E E E E E E
||------0-----0-----|-0-----0-----0---|-----0-----0-----|-0-----0-----0----|
||o---0-----0-----0-|-----0-----0-----|---0-----0-----0-|-----0-----0------|
||------------------|-----------------|-----------------|------------------|
||--3-----2-----0---|---0-----0-----0-|-5-----3-----2---|---2-----2-----2--|
||o-----------------|-----------------|-----------------|------------------|
||------------------|-----------------|-----------------|------------------|


                                     1.,2.
  E E E E E E E E   E E E E E E E E   E E E E E E E E   E E E E E E E E  3x
|-----------------|-----------------|-----------------|------------------||
|-----------------|-----------------|-----------------|-----------------o||
|-----------------|-----------------|-----------------|------------------||
|-----0-----0-----|-0-----0---0-----|-----0-----0-----|-0-----0-----0----||
|---0-----0-----0-|-----0---------0-|---0-----0-----0-|-----0-----0-----o||
|-3-----5-----7---|---8-----7---5---|-3-----2-----0---|---0-----0-----0--||
|
| E E E E E E E E   E E E E E E E E   E E E E E E E E   E E E E E E E E  3x
|-----0-----0-----|-0-----0---------|-----0-----0-----|-0-----0-----0----||
|---0-----0-----0-|-----0-----0---0-|---0-----0-----0-|-----0-----0-----o||
|-----------------|-----------------|-----------------|------------------||
|-3-----5-----7---|---8-----7---5---|-3-----2-----0---|---0-----0-----0--||
|-----------------|-----------------|-----------------|-----------------o||
|-----------------|-----------------|-----------------|------------------||


  3.
  E E E E E E Q    +W
|----------------|--------*|
|----------------|--------*|
|----------------|--------*|
|-----0-----0----|--------*|
|---0-----0------|--------*|
|-3-----2-----0--|-(0)----*|
|
| E E E E E E Q    +W
|-----0-----0----|--------*|
|---0-----0------|--------*|
|----------------|--------*|
|-3-----2-----0--|-(0)----*|
|----------------|--------*|
|----------------|--------*|


Duration Legend
---------------
W - whole; H - half; Q - quarter; E - 8th; S - 16th; T - 32nd; X - 64th; a - acciaccatura
+ - note tied to previous; . - note dotted; .. - note double dotted
Uncapitalized letters represent notes that are staccato (1/2 duration)
Irregular groupings are notated above the duration line
Duration letters will always appear directly above the note/fret number it represents the
duration for.  Duration letters with no fret number below them represent rests.  Multi-
bar rests are notated in the form Wxn, where n is the number of bars to rest for.  Low
melody durations appear below the staff

Tablature Legend
----------------
 h   - hammer-on
 p   - pull-off
 b   - bend
 pb  - pre-bend
 r   - bend release (if no number after the r, then release immediately)
 /\  - slide into or out of (from/to "nowhere")
 s   - legato slide
 S   - shift slide
  - natural harmonic
[n]  - artificial harmonic
n(n) - tapped harmonic
 ~   - vibrato
 tr  - trill
 T   - tap
 TP  - trem. picking
 PM  - palm muting
\n/  - tremolo bar dip; n = amount to dip
 \n  - tremolo bar down
 n/  - tremolo bar up
/n\  - tremolo bar inverted dip
 =   - hold bend; also acts as connecting device for hammers/pulls
 <>  - volume swell (louder/softer)
 x   - on rhythm slash represents muted slash
 o   - on rhythm slash represents single note slash

Misc Legend
-----------
 |  - bar
||  - double bar
||o - repeat start
o|| - repeat end
*|  - double bar (ending)
 :  - bar (freetime)
 $  - Segno
 &  - Coda
Tempo markers -  = BPM(8/16=s8/s16), where s8 = swing 8ths, s16 = swing 16ths


***************************************************************************************
* Generated using Power Tab Editor by Brad Larsen - http://powertab.guitarnetwork.org *
***************************************************************************************
Suggest correction
comments
print report bad tab
7 comments total. Showing first comments.
-1 reply
kornfan666 10 Mar 19, 2002 12:00 AM

AHEM im afraid there is no point in having three guitarists especially seeing as the FUCKING BAND ONLY HAVE 1 AND A BASSIST u need to sort this one out man- other than that its ok and god have you bothered too much with ur key thingy

+1 reply
caveman 25 Mar 31, 2002 12:00 AM

All These Tabs Are Missin' The Lil High Riff on DAF after each line of verse!

+1 reply
esp87 0 Apr 23, 2002 12:00 AM

This tab is very confusing, but the multiple guitars were a good guess. and kornfan666, many bands use overlapping guitar parts. How the hell do you think toxicity is played? Theyt use over 4 guitars plus the bass.

guest
You may want to rate the tab now too:
select rating
Wanna post a correction for this tab? Suggest correction