Oops, an error
Loading. Please wait.

Attack Tab

version 2
version 2

Whole song

4,461 views 6 this week
2 commentsread comments
1 2 3 4 5
worth learning
x 8
add to favorites
launch autoscroll
font size
0
reset
how to read this tab
guitar tuner
Tab Pro tools
  • play this tab
  • loop segment
  • change instrument
  • show fretboard
  • metronome
×
Best way to learn
"Attack"
Autoscroll
slow
fast
+/-
esc
set tempo
stop
Difficulty
novice
Intro:

eb|-----------------------------------------|
Bb|-----------------------------------------|
Gb|-----------------------------------------|
Db|-----------------------------------------|	x 3
Ab|-----------------------------------------|
Db|-12-13-12-13-12-13-12-13-0-0-0-0-0-0-0-0-|
			    ......PM.......
eb|-------------------------|
Bb|-------------------------|
Gb|-------------------------|
Db|-------------------------|
Ab|-------------------------|
Db|-12-13-12-13-12-13-12-13-|

eb|-----------------------------------------|
Bb|-----------------------------------------|
Gb|-----------------------------------------|
Db|-12-13-12-13-12-13-12-13-0-0-0-0-0-0-0-0-|	x 8
Ab|-12-13-12-13-12-13-12-13-0-0-0-0-0-0-0-0-|
Db|-12-13-12-13-12-13-12-13-0-0-0-0-0-0-0-0-|
			    ......PM.......

Verse:

eb|-8-/-6~--6-8-/5~----8-/-6~--10-8-/5~--5-6-8---10-11-6---8--10-565-5-5-5-|
Bb|-10/-8~--8-10/7~----10/-8~--11-10/7~--7-8-10--11-13-8---10-11-7-7-7-7-7-|

eb|------------------------------------------------------------------------------------------------|
Bb|------------------------------------------------------------------------------------------------|
Gb|------------------------------------------------------------------------------------------------|
Db|-5-5-4-5-7-7-5-7-8-8-7-8-10-10-10-10---------------------------------------------------    x 2--|
Ab|-5-5-4-5-7-7-5-7-8-8-7-8-10-10-10-10------------------------------------------------------------|
Db|-5-5-4-5-7-7-5-7-8-8-7-8-10-10-10-10-12-12-12-10-10-10-8-8-8-7-7-10-10-10-8-8-8-7-7-4-4---------|
   ........................................PM.............................................

Chorus:
eb|-------------------------|
Bb|-------------------------|
Gb|-------------------------|
Db|-8-10-13-12-12-12-12-12--|	x3
Ab|-8-10-13-12-12-12-12-12--|
Db|-8-10-13-12-12-12-12-12--|
  ....PM...    ......PM.....

eb|--------------------------------------|
Bb|--------------------------------------|
Gb|--------------------------------------|
Db|-8-10-13-12-13-14-14-14-15-14-8-10-13-|
Ab|-8-10-13-12-13-14-14-14-15-14-8-10-13-|
Db|-8-10-13-12-13-14-14-14-15-14-8-10-13-|
  ....PM...                      .PM..

Verse:
eb|------------------------------------------------------------------------------------------------|
Bb|------------------------------------------------------------------------------------------------|
Gb|------------------------------------------------------------------------------------------------|
Db|-5-5-4-5-7-7-5-7-8-8-7-8-10-10-10-10---------------------------------------------------    x 2--|
Ab|-5-5-4-5-7-7-5-7-8-8-7-8-10-10-10-10------------------------------------------------------------|
Db|-5-5-4-5-7-7-5-7-8-8-7-8-10-10-10-10-12-12-12-10-10-10-8-8-8-7-7-10-10-10-8-8-8-7-7-4-4---------|
   ........................................PM.............................................

Chorus:
eb|-------------------------|
Bb|-------------------------|
Gb|-------------------------|
Db|-8-10-13-12-12-12-12-12--|	x3
Ab|-8-10-13-12-12-12-12-12--|
Db|-8-10-13-12-12-12-12-12--|
  ....PM...    ......PM.....

eb|-------------------------|
Bb|-------------------------|
Gb|-------------------------|
Db|-8-10-13-12-13-14-14-14--|
Ab|-8-10-13-12-13-14-14-14--|
Db|-8-10-13-12-13-14-14-14--|
  ....PM...

eb|-----------------------------------------|
Bb|-----------------------------------------|
Gb|-----------------------------------------|
Db|-12-13-12-13-12-13-12-13-0-0-0-0-0-0-0-0-|	x 8
Ab|-12-13-12-13-12-13-12-13-0-0-0-0-0-0-0-0-|
Db|-12-13-12-13-12-13-12-13-0-0-0-0-0-0-0-0-|
			    ......PM.......

Verse:

eb|-8-/-6~--6-8-/5~----8-/-6~--10-8-/5~--5-6-8---10-11-6---8--10-565-5-5-5-|
Bb|-10/-8~--8-10/7~----10/-8~--11-10/7~--7-8-10--11-13-8---10-11-7-7-7-7-7-|	Gtr 1

eb|---15-15-15----14-14-14--|
Bb|---15-15-15----15-15-15--|	Gtr 2

eb|------------------------------------------------------------------------------------------------|
Bb|------------------------------------------------------------------------------------------------|
Gb|------------------------------------------------------------------------------------------------|
Db|-5-5-4-5-7-7-5-7-8-8-7-8-10-10-10-10---------------------------------------------------    x 2--|
Ab|-5-5-4-5-7-7-5-7-8-8-7-8-10-10-10-10------------------------------------------------------------|
Db|-5-5-4-5-7-7-5-7-8-8-7-8-10-10-10-10-12-12-12-10-10-10-8-8-8-7-7-10-10-10-8-8-8-7-7-4-4---------|
   ........................................PM.............................................


Chorus:
eb|-------------------------|
Bb|-------------------------|
Gb|-------------------------|
Db|-8-10-13-12-12-12-12-12--|	x3
Ab|-8-10-13-12-12-12-12-12--|
Db|-8-10-13-12-12-12-12-12--|
  ....PM...    ......PM.....

eb|------------------------------|
Bb|------------------------------|
Gb|------------------------------|
Db|-8-10-13-12-13-14-14-14-15-14-|
Ab|-8-10-13-12-13-14-14-14-15-14-|
Db|-8-10-13-12-13-14-14-14-15-14-|
  ....PM...

eb|------------------------|
Bb|------------------------|
Gb|------------------------|
Db|-8-10-13-12-12-0-12-12--|	x3
Ab|-8-10-13-12-12-0-12-12--|
Db|-8-10-13-12-12-0-12-12--|
  ............PM...........

eb|-------------------------|
Bb|-------------------------|
Gb|-------------------------|
Db|-8-10-13-12-13-14-14-14--|
Ab|-8-10-13-12-13-14-14-14--|
Db|-8-10-13-12-13-14-14-14--|
  ....PM...

End:


eb|------------------------------------------|
Bb|------------------------------------------|
Gb|------------------------------------------|
Db|-4--4--4--4--4--4--4--x1-4-x5-4-x1-4-x5-4-|
Ab|-4--4--4--4--4--4--4--x1-4-x5-4-x1-4-x5-4-|
Db|-4--4--4--4--4--4--4--x1-4-x5-4-x1-4-x5-4-|

eb|------------|
Bb|------------|
Gb|------------|
Db|-8-10-13-12-|
Ab|-8-10-13-12-|
Db|-8-10-13-12-|
  ....PM...
comments
print report bad tab
2 comments total.
0 reply
commonlerror wrote on November 17 2005, 05:44 pm

not accurate sorry dude.

0 reply
scoff_sucker wrote on November 30 2005, 03:07 pm

i like the way this intro sounds compared to the other tab. not quite accurate though, brah.

I want to post or [tab]
guest
You may want to rate the tab now too:
select rating
Please do not post tabs as comments. Select "correction" instead!