Oops, an error
Loading. Please wait.
145,761 views 93 this week
41 commentsread comments
1 2 3 4 5
x 130
add to favorites
launch autoscroll
font size
0
reset
how to read this tab
guitar tuner
backing track
0:00
0:00
Autoscroll
slow
fast
+/-
esc
set tempo
stop
Tuning
D# G# C# F# A# D#
Here's the intro/verse riff to ATWA. This is the first song I've ever tabbed so I'm sure 
there are errors.
This one is a bit easier to play than other versions (I think so anyway) and doesn't use 
funny tunings
Standard tuning down 1/2 step


[Intro]

D#|--------------------------------------------------------|
A#|--------------------------------------------------------|
F#|-----2--------1--------4------6------7------6------4----|
C#|--------------------------------------------------------|
G#|--------------------------------------------------------|
D#|--2----2---0----0---4----4/5----5/7----7/5----5/4----4--|

D#|---------|
A#|---------|
F#|-----2---|
C#|---------|
G#|---------|
D#|--2----2-|


************************************

| b  Bend
| /  Slide up

************************************
Suggest correction
comments
print report bad tab
41 comments total. Showing first comments.
0 reply
Shaunnc 10 Mar 09, 2002 07:00 PM

Great tab

0 reply
qwiun 0 Apr 03, 2002 07:00 PM

[4-4-2002]XSS1
COOL

0 reply
qwiun 0 Apr 03, 2002 07:00 PM

[4-4-2002]XSS1
COOL TAB

guest
You may want to rate the tab now too:
select rating
Wanna post a correction for this tab? Suggest correction