Oops, an error
Loading. Please wait.

Atwa Tab

5,059 views 3 this week
4 commentsread comments
1 2 3 4 5
accurate
x 5
add to favorites
launch autoscroll
font size
0
reset
how to read this tab
guitar tuner
Autoscroll
slow
fast
+/-
esc
set tempo
stop
Help us to improve Ultimate-Guitar.com Take our survey!
×
Author
Difficulty
Tuning
intermediate
C G C F A D
    Hey everybody, um... I was bored so I decided to tab a.t.w.a.....yep.

  Plz rate and tell me what you think

Song: A.T.W.A.
Artist: System of a Down
Tuning: Drop C

Tabbed by petrifiedmonkey

--Legend--
/= slide up
\= slide down
h= hammer on
p= pull off
~= let note ring
*= palm mute
b= bend note
x= mute string
--Legend--

Intro
D]---------------------------------------------------------------------------------]
A]---------------------------------------------------------------------------------]
F]---------------------------------------------------------------------------------]
C]-----8--------7--------10--------12----------13---------12--------10--------8----]
G]---------------------------------------------------------------------------------]
C]--5----5-5\3----3-3/7-----7-7/8------8-8/10----10-10\8-----8-8/7-----7-7\5----5--]

D]---------------------------------------------------------------------------------]
A]---------------------------------------------------------------------------------]
F]---------------------------------------------------------------------------------]
C]-----8--------7--------10--------12----------13---------12--------10--------8----]
G]---------------------------------------------------------------------------------]
C]--5----5-5\3----3-3/7-----7-7/8------8-8/10----10-10\8-----8-8/7-----7-7\5----5--]

Verse
D]---------------------------------------------------------------------------------]
A]---------------------------------------------------------------------------------]
F]---------------------------------------------------------------------------------]
C]-----8--------7--------10--------12----------13---------12--------10--------8----]
G]---------------------------------------------------------------------------------]
C]--5----5-5\3----3-3/7-----7-7/8------8-8/10----10-10\8-----8-8/7-----7-7\5----5--]

D]---------------------------------------------------------------------------------]
A]---------------------------------------------------------------------------------]
F]---------------------------------------------------------------------------------]
C]-----8--------7--------10--------12----------13---------12--------10--------8----]
G]---------------------------------------------------------------------------------]
C]--5----5-5\3----3-3/7-----7-7/8------8-8/10----10-10\8-----8-8/7-----7-7\5----5--]

Chorus
D]------------------------------------------------------------------]
A]------------------------------------------------------------------]
F]------------------------------------------------------------------]
C]--5-5-5-5-5-5-5---5-5-5-5-5-5-5---5-5-5-5-5-5-5---5-5-5-5-5-5-5---]
G]--5-5-5-5-5-5-5---5-5-5-5-5-5-5---5-5-5-5-5-5-5---5-5-5-5-5-5-5---]
C]--5-5-5-5-5-5-5---5-5-5-5-5-5-5---5-5-5-5-5-5-5---5-5-5-5-5-5-5---]

D]------------------------------------------------------------------]
A]------------------------------------------------------------------]
F]------------------------------------------------------------------]
C]--5-5-5-5-5-5-5---5-5-5-5-5-5-5---5-5-5-5-5-5-5---5-5-5-5-5-5-5---]
G]--5-5-5-5-5-5-5---5-5-5-5-5-5-5---5-5-5-5-5-5-5---5-5-5-5-5-5-5---]
C]--5-5-5-5-5-5-5---5-5-5-5-5-5-5---5-5-5-5-5-5-5---5-5-5-5-5-5-5---]

Verse
D]---------------------------------------------------------------------------------]
A]---------------------------------------------------------------------------------]
F]---------------------------------------------------------------------------------]
C]-----8--------7--------10--------12----------13---------12--------10--------8----]
G]---------------------------------------------------------------------------------]
C]--5----5-5\3----3-3/7-----7-7/8------8-8/10----10-10\8-----8-8/7-----7-7\5----5--]

D]---------------------------------------------------------------------------------]
A]---------------------------------------------------------------------------------]
F]---------------------------------------------------------------------------------]
C]-----8--------7--------10--------12----------13---------12--------10--------8----]
G]---------------------------------------------------------------------------------]
C]--5----5-5\3----3-3/7-----7-7/8------8-8/10----10-10\8-----8-8/7-----7-7\5----5--]

D]---------------------------------------------------------------------------------]
A]---------------------------------------------------------------------------------]
F]---------------------------------------------------------------------------------]
C]-----8--------7--------10--------12----------13---------12--------10--------8----]
G]---------------------------------------------------------------------------------]
C]--5----5-5\3----3-3/7-----7-7/8------8-8/10----10-10\8-----8-8/7-----7-7\5----5--]

Chorus
D]------------------------------------------------------------------]
A]------------------------------------------------------------------]
F]------------------------------------------------------------------]
C]--5-5-5-5-5-5-5---5-5-5-5-5-5-5---5-5-5-5-5-5-5---5-5-5-5-5-5-5---]
G]--5-5-5-5-5-5-5---5-5-5-5-5-5-5---5-5-5-5-5-5-5---5-5-5-5-5-5-5---]
C]--5-5-5-5-5-5-5---5-5-5-5-5-5-5---5-5-5-5-5-5-5---5-5-5-5-5-5-5---]

D]------------------------------------------------------------------]
A]------------------------------------------------------------------]
F]------------------------------------------------------------------]
C]--5-5-5-5-5-5-5---5-5-5-5-5-5-5---5-5-5-5-5-5-5---5-5-5-5-5-5-6---]
G]--5-5-5-5-5-5-5---5-5-5-5-5-5-5---5-5-5-5-5-5-5---5-5-5-5-5-5-6---]
C]--5-5-5-5-5-5-5---5-5-5-5-5-5-5---5-5-5-5-5-5-5---5-5-5-5-5-5-6---]

Bridge/Interlude/Whatever
D]--------------------------------------------------------------]
A]--------------------------------------------------------------]
F]--------------------------------------------------------------]
C]--5--5--5--5-6---5--5--5--5-6---5--5--5--5-6---5--5--5--5-6---]
G]--5--5--5--5-6---5--5--5--5-6---5--5--5--5-6---5--5--5--5-6---]
C]--5--5--5--5-6---5--5--5--5-6---5--5--5--5-6---5--5--5--5-6---]

Solo
D]-----------------------------------------------------------------------------]
A]-----------------------------------------------------------------------------]
F]-12-12-x-x-10-10-x-x-14-14-x-x-15-15-x-x-17-17-x-x-15-15-x-x-14-14-x-x-12-12-]
C]--x--x-x-x-x--x--x-x--x--x-x-x--x--x-x-x--x--x-x-x--x--x-x-x--x--x-x-x--x--x-]
G]-10-10-x-x-8--8--x-x-12-12-x-x-13-13-x-x-15-15-x-x-13-13-x-x-12-12-x-x-10-10-]
C]-----------------------------------------------------------------------------]

D]------------------------------------------------------------------]
A]------------------------------------------------------------------]
F]-1212121212121212101010101010101014141414141414141515151515151515-]
C]------------------------------------------------------------------]
G]------------------------------------------------------------------]
C]------------------------------------------------------------------]

D]-----------------------------------------------------------------]
A]-----------------------------------------------------------------]
F]-171717171717717151515151515151514141414141414141212121212121212-]
C]-----------------------------------------------------------------]
G]-----------------------------------------------------------------]
C]-----------------------------------------------------------------]
    
Bridge/Interlude/Whatever
D]---------------------------------------------------------------------------]
A]---------------------------------------------------------------------------]
F]---------------------------------------------------------------------------]
G]--5--5--x-x--3--3--x-x--7--7--x-x--8--8--x-x--10--10--x-x--8--8--x-x--7--7-]
C]--5--5--x-x--3--3--x-x--7--7--x-x--8--8--x-x--10--10--x-x--8--8--x-x--7--7-]
G]--5--5--x-x--3--3--x-x--7--7--x-x--8--8--x-x--10--10--x-x--8--8--x-x--7--7-]

D]--------------------------------------------------------------------------]
A]--------------------------------------------------------------------------]
F]--------------------------------------------------------------------------]
G]-x-x--5~--5--5-5-5~--5--x-x--3--3--x-x--7--7--x-x--8--8--x-x--10--10--x-x-]
C]-x-x--5~--5--5-5-5~--5--x-x--3--3--x-x--7--7--x-x--8--8--x-x--10--10--x-x-]
G]-x-x--5~--5--5-5-5~--5--x-x--3--3--x-x--7--7--x-x--8--8--x-x--10--10--x-x-]

D]---------------------------------------------------------------------]
A]---------------------------------------------------------------------]
F]---------------------------------------------------------------------]
G]--8--8--x-x--7--7--x-x--5-5-5-5-5-5-5--5-5-5-5-5-5-5--5-5-5-5-5-5-5--]
C]--8--8--x-x--7--7--x-x--5-5-5-5-5-5-5--5-5-5-5-5-5-5--5-5-5-5-5-5-5--]
G]--8--8--x-x--7--7--x-x--5-5-5-5-5-5-5--5-5-5-5-5-5-5--5-5-5-5-5-5-5--]

Chorus 

D]------------------------------------------------------------------]
A]------------------------------------------------------------------]
F]------------------------------------------------------------------]
C]--5-5-5-5-5-5-5---5-5-5-5-5-5-5---5-5-5-5-5-5-5---5-5-5-5-5-5-5---]
G]--5-5-5-5-5-5-5---5-5-5-5-5-5-5---5-5-5-5-5-5-5---5-5-5-5-5-5-5---]
C]--5-5-5-5-5-5-5---5-5-5-5-5-5-5---5-5-5-5-5-5-5---5-5-5-5-5-5-5---]

D]-----------------]
A]-----------------]
F]-----------------]
C]--5-5-5-5-5-5-6--]
G]--5-5-5-5-5-5-6--]
C]--5-5-5-5-5-5-6--]

Ending
D]--------------------------------------------------------------]
A]--------------------------------------------------------------]
F]--------------------------------------------------------------]
C]--5--5--5--5-6---5--5--5--5-6---5--5--5--5-6---5--5--5--5-6---]
G]--5--5--5--5-6---5--5--5--5-6---5--5--5--5-6---5--5--5--5-6---]
C]--5--5--5--5-6---5--5--5--5-6---5--5--5--5-6---5--5--5--5-6---]


    There ya go
Suggest correction
comments
print report bad tab
4 comments total. Showing first comments.
0 reply
Teen Spirit 656 wrote on May 21 2007, 04:09 pm

hey petrifiedmonkey,
good tab man! 5 stars!

0 reply
afromonkeyR0X 393 wrote on September 12 2008, 10:40 pm

D]------------------------------------------------------------------]
A]------------------------------------------------------------------]
F]-1212121212121212101010101010101014141414141414141515151515151515-]
C]------------------------------------------------------------------]
G]------------------------------------------------------------------]
C]------------------------------------------------------------------]

D]-----------------------------------------------------------------]
A]-----------------------------------------------------------------]
F]-171717171717717151515151515151514141414141414141212121212121212-]
C]-----------------------------------------------------------------]
G]-----------------------------------------------------------------]
C]-----------------------------------------------------------------]

Those should be pinch harmonics i think.

Btw, Nice tab 5*

0 reply
IbanezIceman09 10 wrote on September 13 2009, 07:46 pm

It is a semi-harmonic not a pinch harmonic. Use a wide vibrato while striking the string with the side of the pick.

guest
You may want to rate the tab now too:
select rating
Wanna post a correction for this tab? Suggest correction