Oops, an error
Loading. Please wait.

Atwa Tab

26,069 views 54 this week
4 commentsread comments
1 2 3 4 5
excellent!
x 18
add to favorites
launch autoscroll
font size
0
reset
how to read this tab
guitar tuner
Autoscroll
slow
fast
+/-
esc
set tempo
stop
Help us to improve Ultimate-Guitar.com Take our survey!
×
Author
Tuning
C G C F A D
-------------------------------------------------------------------------------
                                                     ATWA - System of a Down
-------------------------------------------------------------------------------


Tabbed by: Metalrawrr

Email: metalrawrr@hotmail.com

Tuning: Drop C

Pretty easy song. Please comment and rate! :)





Verse
D|---------------------------------------------------------------------------|
A|---------------------------------------------------------------------------|
F|---3------2------5------7-------8-------7------5------3--------------------|
C|---------------------------------------------------------------------------|
G|---------------------------------------------------------------------------|
C|-5----5-3----3-7----7-8----8-10----10-8----8-7----7-5----------------------| x 1

D|---------------------------------------------------------------------------|
A|---------------------------------------------------------------------------|
F|-----3------2------5------7-------8-------7------5------3------------------|
C|---------------------------------------------------------------------------|
G|---------------------------------------------------------------------------|
C|-5-5----5-3----3-7----7-8----8-10----10-8----8-7----7-5--------------------| x 3



Chorus
D|---------------------------------------------------------------------------|
A|---------------------------------------------------------------------------|
F|---------------------------------------------------------------------------|
C|-5-5-5-5-5-5-5-------------------------------------------------------------|
G|-5-5-5-5-5-5-5-------------------------------------------------------------|
C|-5-5-5-5-5-5-5-------------------------------------------------------------| x 7

D|---------------------------------------------------------------------------|
A|---------------------------------------------------------------------------|
F|---------------------------------------------------------------------------|
C|-5-5-5-5-5-5-6-------------------------------------------------------------|
G|-5-5-5-5-5-5-6-------------------------------------------------------------|
C|-5-5-5-5-5-5-6-------------------------------------------------------------| x 1



Verse
D|---------------------------------------------------------------------------|
A|---------------------------------------------------------------------------|
F|---3------2------5------7-------8-------7------5------3--------------------|
C|---------------------------------------------------------------------------|
G|---------------------------------------------------------------------------|
C|-5----5-3----3-7----7-8----8-10----10-8----8-7----7-5----------------------| x 1

D|---------------------------------------------------------------------------|
A|---------------------------------------------------------------------------|
F|-----3------2------5------7-------8-------7------5------3------------------|
C|---------------------------------------------------------------------------|
G|---------------------------------------------------------------------------|
C|-5-5----5-3----3-7----7-8----8-10----10-8----8-7----7-5--------------------| x 3



Chorus
D|---------------------------------------------------------------------------|
A|---------------------------------------------------------------------------|
F|---------------------------------------------------------------------------|
C|-5-5-5-5-5-5-5-------------------------------------------------------------|
G|-5-5-5-5-5-5-5-------------------------------------------------------------|
C|-5-5-5-5-5-5-5-------------------------------------------------------------| x 7

D|---------------------------------------------------------------------------|
A|---------------------------------------------------------------------------|
F|---------------------------------------------------------------------------|
C|-5-5-5-5-5-5-6-------------------------------------------------------------|
G|-5-5-5-5-5-5-6-------------------------------------------------------------|
C|-5-5-5-5-5-5-6-------------------------------------------------------------| x 1



"I Don't See"
D|---------------------------------------------------------------------------|
A|---------------------------------------------------------------------------|
F|---------------------------------------------------------------------------|
C|-5-5-5--5-6----------------------------------------------------------------|
G|-5-5-5--5-6----------------------------------------------------------------|
C|-5-5-5--5-6----------------------------------------------------------------| x 4



Solo Part 1
D|---------------------------------------------------------------------------|
A|---------------------------------------------------------------------------|
F|-12--12-12-10\--10-10-/14--14-14-/15--15-15-/17--17-17-\15--15-15----------|
C|---------------------------------------------------------------------------|
G|---------------------------------------------------------------------------|
C|---------------------------------------------------------------------------| x 1

D|---------------------------------------------------------------------------|
A|---------------------------------------------------------------------------|
F|-\14--14-14-\12--12-12-----------------------------------------------------|
C|---------------------------------------------------------------------------|
G|---------------------------------------------------------------------------|
C|---------------------------------------------------------------------------| x 1



Solo Part 2
In this part you must bend the string very fast and use harmonic to get the right sound.
Listen closely.
D|---------------------------------------------------------------------------|
A|---------------------------------------------------------------------------|
F|-12-12-12-12-12-12-12-12-10-10-10-10-10-10-10-10-14-14-14-14-14-14-14-14---|
C|---------------------------------------------------------------------------|
G|---------------------------------------------------------------------------|
C|---------------------------------------------------------------------------| x 1

D|---------------------------------------------------------------------------|
A|---------------------------------------------------------------------------|
F|-15-15-15-15-15-15-15-15-17-17-17-17-17-17-17-17-15-15-15-15-15-15-15-15---|
C|---------------------------------------------------------------------------|
G|---------------------------------------------------------------------------|
C|---------------------------------------------------------------------------| x 1

D|---------------------------------------------------------------------------|
A|---------------------------------------------------------------------------|
F|-14-14-14-14-14-14-14-14-12-12-12-12-12-12-12-12---------------------------|
C|---------------------------------------------------------------------------|
G|---------------------------------------------------------------------------|
C|---------------------------------------------------------------------------| x 1



Power Verse
D|---------------------------------------------------------------------------|
A|---------------------------------------------------------------------------|
F|---------------------------------------------------------------------------|
C|-5--5-5-3--3-3-7--7-7-8--8-8-10--10-10-8--8-8--7--7-7-5--5-5---------------|
G|-5--5-5-3--3-3-7--7-7-8--8-8-10--10-10-8--8-8--7--7-7-5--5-5---------------|
C|-5--5-5-3--3-3-7--7-7-8--8-8-10--10-10-8--8-8--7--7-7-5--5-5---------------| x 2



Chorus
D|---------------------------------------------------------------------------|
A|---------------------------------------------------------------------------|
F|---------------------------------------------------------------------------|
C|-5-5-5-5-5-5-5-------------------------------------------------------------|
G|-5-5-5-5-5-5-5-------------------------------------------------------------|
C|-5-5-5-5-5-5-5-------------------------------------------------------------| x 7

D|---------------------------------------------------------------------------|
A|---------------------------------------------------------------------------|
F|---------------------------------------------------------------------------|
C|-5-5-5-5-5-5-6-------------------------------------------------------------|
G|-5-5-5-5-5-5-6-------------------------------------------------------------|
C|-5-5-5-5-5-5-6-------------------------------------------------------------| x 1



"I Don't Sleep"
D|---------------------------------------------------------------------------|
A|---------------------------------------------------------------------------|
F|---------------------------------------------------------------------------|
C|-5-5-5--5-6----------------------------------------------------------------|
G|-5-5-5--5-6----------------------------------------------------------------|
C|-5-5-5--5-6----------------------------------------------------------------| x 4



************************************

| *   Palm Mute
| /   slide up
| \   slide down
| h   hammer-on
| p   pull-off
| ~   vibrato
| +   harmonic
| x   Mute note
| b   Bend
| pb  Pre-bend
| br  Bend release
| pbr Pre-bend release
| brb Bend release bend

************************************
Suggest correction new What's this?
You can suggest a correction to this tab. Community and Mods will review your correction and vote to approve or reject it.
comments
print report bad tab
4 comments total. Showing first comments.
+2 reply
SaucyRebel 95 wrote on March 8 2011, 01:12 pm

Great job! This is perfect. Only thing I do different is play octaves on the G string in part 1 of the solo.
Ex:
Solo Part 1
D|------------------------------------------------------
A|------------------------------------------------------
F|-12--12-12-\10--10-10-/14--14-14-/15--15-15-/17--17---
C|--x---x--x--x---x--x---x---x--x---x---x--x---x---x----
G|-10--10-10-\8---8--8--/12--12-12-/13--13-13-/15--15---
C|------------------------------------------------------

anyways, great tab! *****

+1 reply
soad11dude 13 wrote on March 23 2011, 01:58 pm

Merci beaucoup, cette tablature m'a aidé énormément à apprendre la chanson. J'aurais aimé si tu aurais mit la longueur des notes en dessous de chaque note pour plus de précision et je ne suis pas sur si le solo est correct. Poudrais-tu mettre la longueur des notes et faire sur que le solo est correct?

0 reply
deathfromala 4,590 wrote on February 11 2012, 08:55 pm

mffg.... noone can get the solo... its what the top comment said and then 2nd time around is artificial harmnonics.. im doing it...

guest
You may want to rate the tab now too:
select rating
Please do not post tabs as comments. Select "correction" instead!