Oops, an error
Loading. Please wait.

Atwa Tab

4,068 views 9 this week
1 commentread comment
1 2 3 4 5
please rate
add to favorites
launch autoscroll
font size
0
reset
how to read this tab
guitar tuner
Autoscroll
slow
fast
+/-
esc
set tempo
stop
Help us to improve Ultimate-Guitar.com Take our survey!
×
Author
Difficulty
Tuning
intermediate
C G C F A D
ATWA..
SYSTEM OF A DOWN
TOXICITY
DROP C

INTRO/ VERSE  0:00
D |----------------------------------------------------------------|
A |----------------------------------------------------------------|
F |-------3---------2---------5---------7--------8-----------------|
C |----------------------------------------------------------------|
G |----------------------------------------------------------------|
C |--5--------5\3-------3/7-------7/8------8/10-----10\------------|

D |-------------------------------|
A |-------------------------------|
F |-----7---------5---------3-----|
C |-------------------------------|   X 4
G |-------------------------------|
C |--8------8\7-------7\5-------5-|

CHORUS  LIGHTLY PALM MUTED 0:50
D |-------------------------|
A |-------------------------|
F |-------------------------|
C |--5--5--5--5--5--5--5----|
G |--5--5--5--5--5--5--5----|  X8
C |--5--5--5--5--5--5--5----|


                       PLAY VERSE/ INTRO X3 1:01


                            PLAY CHORUS 1:34
  BRIDGE PART? 1:45
D |-----------------------|
A |-----------------------|
F |-----------------------|
C |--5--5--5--5-6---------|
G |--5--5--5--5-6---------|  X4
C |--5--5--5--5-6---------|
              *

SOLO 1:56
D |----------------------------------------|
A |----------------------------------------|
F |-12-----12----12\----10-----10----10/---|
C |--x------x-----x------x------x-----x----|
G |-10-----10----10\-----8------8-----8/---|
C |----------------------------------------|

D |----------------------------------------|
A |----------------------------------------|
F |-14-----14----14/----15-----15----15/---|
C |--x------x-----x------x------x-----x----|
G |-12-----12----12/----13-----13----13/---|
C |----------------------------------------|

D |----------------------------------------|
A |----------------------------------------|
F |-17-----17----17\----15-----15----15\---|
C |--x------x-----x------x------x-----x----|
G |-15-----15----15\----13-----13----13\---|
C |----------------------------------------|

D |----------------------------------------|
A |----------------------------------------|
F |-14-----14----14\----12-----12----12----|
C |--x------x-----x------x------x-----x----|
G |-12-----12----12\----10-----10----10----|
C |----------------------------------------|

2ND PART OF SOLO.... 2:06 (READ NOTE BELOW THIS PART)
D |------------------------------------------------------------------------|
A |------------------------------------------------------------------------|
F |-12-12-12-12-12-12-12-12-10-10-10-10-10-10-10-10-14-14-14-14-14-14-14-14|
C |------------------------------------------------------------------------|
G |------------------------------------------------------------------------|
C |------------------------------------------------------------------------|
  |
D |------------------------------------------------------------------------|
A |------------------------------------------------------------------------|
F |-15-15-15-15-15-15-15-15-17-17-17-17-17-17-17-17-15-15-15-15-15-15-15-15|
C |------------------------------------------------------------------------|
G |------------------------------------------------------------------------|
C |------------------------------------------------------------------------|
  |
D |------------------------------------------------------------------------|
A |------------------------------------------------------------------------|
F |-14-14-14-14-14-14-14-14-12-12-12-12-12-12-12-12------------------------|
C |------------------------------------------------------------------------|
G |------------------------------------------------------------------------|
C |------------------------------------------------------------------------|

^^ ALL OF THAT PART 2 SOLO IS ALL BENT NOTES AND AN ARTIFICIAL (PINCH) HARMONIC EVERY 
NOW AND THEN..

CHORUS THINGY  2:17
D |------------------------------------------------------------|
A |------------------------------------------------------------|
F |------------------------------------------------------------|
C |-5-5-5-3-3-3-7-7-7-8-8-8-10-10-10-8-8-8-7-7-7-5-5-5---------|  X2
G |-5-5-5-3-3-3-7-7-7-8-8-8-10-10-10-8-8-8-7-7-7-5-5-5---------|
C |-5-5-5-3-3-3-7-7-7-8-8-8-10-10-10-8-8-8-7-7-7-5-5-5---------|

^^^^ PLAY THAT 5 AT THE END A FEW TIMES PALM MUTED ON THE 2ND TIME ROUND^^^


                              PLAY CHORUS X8 2:37


                              PLAY BRIDGE PART X4  2:48

DONE =P
Suggest correction
Give kudos to tab author, rate the tab!
1 2 3 4 5
comments
print report bad tab
1 comment total.
0 reply
deathfromala 3,200 wrote on February 15 2012, 12:29 am

Soz about line stuff up in solo part.. Still make sense tho

guest
You may want to rate the tab now too:
select rating
Please do not post tabs as comments. Select "correction" instead!