Oops, an error
Loading. Please wait.

Atwa Bass Tab

version 3
version 3

Whole song

Interactive

13,438 views 21 this week
6 commentsread comments
1 2 3 4 5
excellent!
x 9
add to favorites
launch autoscroll
font size
0
reset
guitar tuner
Autoscroll
slow
fast
+/-
esc
set tempo
stop
Help us to improve Ultimate-Guitar.com Take our survey!
×
Author
Difficulty
Tuning
novice
D A D G B E
you don't play the intro. a lot of people may say that it is bass but it is not.

Pre-chorus: all played as sixteenth notes
---------------------------------------------------------------|
---------------------------------------------------------------|
---------------------------------------------------------------|
5555555-5555555-5555555-5555555-5555555-5555555-5555555-555555-|

Interlude: all played as half notes
---------------------------------|
---------------------------------|
---------------------------------|
5---3---7---8---10---8---7---5---|

Vere: all played as half notes
---------------------------------|
---------------------------------|
---------------------------------| X2
5---3---7---8---10---8---7---5---|

Pre-chorus: all played as sixteenth notes
---------------------------------------------------------------|
---------------------------------------------------------------|
---------------------------------------------------------------|
5555555-5555555-5555555-5555555-5555555-5555555-5555555-555556-|

Chorus
------------------------------------------------|
------------------------------------------------|
------------------------------------------------|
5--5--5--56-5--5--5--56-5--5--5--56-5--5--5--56-|

------------------------------------------------------------------------|
------------------------------------------------------------------------|
------------------------------------------------------------------------|
5--5-55-3-3-3-33-7--7-77-8-8-8-88-10--10-1010-8-8-8-88-7--7-77-5-5-5-55-|

--------------------------------------------------------------------------------|
--------------------------------------------------------------------------------|
--------------------------------------------------------------------------------|
55555555-33333333-77777777-88888888-1010101010101010-88888888-77777777-55555555-|

Verse
------------------------------------------------------------------------|
------------------------------------------------------------------------|
------------------------------------------------------------------------| X2
5--5-55-3-3-3-33-7--7-77-8-8-8-88-10--10-1010-8-8-8-88-7--7-77-5-5-5-55-|

---------------------------------------------------------------|
---------------------------------------------------------------|
---------------------------------------------------------------|
5555555-5555555-5555555-5555555-5555555-5555555-5555555-555556-|


Ending
------------------------------------------------|
------------------------------------------------|
------------------------------------------------|
5--5--5--56-5--5--5--56-5--5--5--56-5--5--5--56-|

thne your done! i am 100% this is right not left right XD but if any corrections tell me 
for more soad song go to my prfile
Suggest correction
comments
print report bad tab
6 comments total. Showing first comments.
0 reply
lespaulowner 10 wrote on April 4 2009, 10:58 pm

great tab! im a beginner and i sight read the whole song perfectly! 5*'s

0 reply
scorpionx 51 wrote on October 17 2010, 12:04 pm

This is correct but not Drop D! It's sounds good in Drop C. But I hope you know and it's only mistake ;)

+2 reply
thunderhawk 535 wrote on April 30 2011, 10:09 pm

Yes sorry it is drop d and one full step down which is drop C

guest
You may want to rate the tab now too:
select rating
Please do not post tabs as comments. Select "correction" instead!