Oops, an error
Loading. Please wait.
1,715 views 1 this week
no commentswrite comment
1 2 3 4 5
accurate
x 3
add to favorites
launch autoscroll
font size
0
reset
how to read this tab
guitar tuner
Tab Pro tools
  • play this tab
  • loop segment
  • change instrument
  • show fretboard
  • metronome
×
Best way to learn
"Atwa"
Autoscroll
slow
fast
+/-
esc
set tempo
stop
#----------------------------------PLEASE NOTE--------------------------------#
#This file is the author's own work and represents their interpretation of the#
#song. You may only use this file for private study, scholarship, or research.#
#-----------------------------------------------------------------------------#
#-- File created with Instab - http://www.pconline.com/~smcarey/instab.html --#
#-----------------------------------------------------------------------------#

Author/Artist: Syatem Of A Down
Title: ATWA
Album: Toxicity
Transcribed by: JT
Email: chopper668@yahoo.com

Drop C tuned: C G C F A D
This way is easiest to play and it sounds right to me.

------------------------------------------------------------------------------
------------------------------------------------------------------------------
------------2----------------7------------------7-----------------------------
----8---------------10----------------13----------------10------8-------------
------------------------------------------------------------------------------
-5-----5-3-----3-7------7-8-----8-10------10-8-----8-7-----7-5-----5----------
                                                                              

------------------------------------------------------------------------------
------------------------------------------------------------------------------
------------------------------------------------------------------------------
------------------------------------------------------------------------------
------------------------------------------------------------------------------
------------------------------------------------------------------------------
 Repeat above with lyrics...                                                  

------------------------------------------------------------------------------
------------------------------------------------------------------------------
------------------------------------------------------------------------------
--5-5-5-5-5-5-5--------5-5-5-5-5-5-5------------------------------------------
--5-5-5-5-5-5-5--------5-5-5-5-5-5-5------------------------------------------
--5-5-5-5-5-5-5--------5-5-5-5-5-5-5------------------------------------------
 you don't care...     I don't feel it...X2  Rpt intro w/lyrics & light dist. 

------------------------------------------------------------------------------
------------------------------------------------------------------------------
------------------------------------------------------------------------------
----------5-5-5--6-6----5---5----5---5-6--------5---5----5-----5-6------------
----------5-5-5--6-6----5---5----5---5-6--------5---5----5-----5-6------------
----------5-5-5--6-6----5---5----5---5-6--------5---5----5-----5-6------------
 Chorus.....  Anymore!  I don't see  Anymore!   I don't hear   Anymore!       

------------------------------------------------------------------------------
------------------------------------------------------------------------------
----------------------------------------------------12---12\10-10/14--14/15---
-5---5-----5----5-6-------5--5-------5-----5-6--------------------------------
-5---5-----5----5-6-------5--5-------5-----5-6------10---10\8---8/12--12/13---
-5---5-----5----5-6-------5--5-------5-----5-6--------------------------------
 I don't speak  Anymore!     I don't feel                                     

------------------------------------------------------------------------------
------------------------------------------------------------------------------
-15/17--17\15--15\14--14\12--12--12-12-12-12-12-12-12-12-10-10-10-10-10-10-10-
------------------------------------------------------------------------------
-13/15--15\13--13\12--12\10--10-----------------------------------------------
------------------------------------------------------------------------------
    lalalala lalalala la la la   (go nuts with bending and vibrato...         

------------------------------------------------------------------------------
------------------------------------------------------------------------------
-10-14-14-14-14-14-14-14-14-15-15-15-15-15-15-15-15-17-17-17-17-17-17-17-17---
------------------------------------------------------------------------------
------------------------------------------------------------------------------
------------------------------------------------------------------------------
                                                                la    la      

------------------------------------------------------------------------------
------------------------------------------------------------------------------
-15-15-15-15-15-15-15-15-14-14-14-14-14-14-14-14-12-12-12-12-12-12-12-12------
------------------------------------------------------------------------------
------------------------------------------------------------------------------
------------------------------------------------------------------------------
 la    la    la    la    la    la    la    la    la                           

------------------------------------------------------------------------------
------------------------------------------------------------------------------
------------------------------------------------------------------------------
-5--------3-------7----------8----10-------------8----------------7-----------
-5--------3-------7----------8----10-------------8----------------7-----------
-5--------3-------7----------8----10-------------8----------------7-----------
   hey you, see me   pictures  crazy   all the world I've seen before me      

------------------------------------------------------------------------------
------------------------------------------------------------------------------
------------------------------------------------------------------------------
----------5-------------------------------------------------------------------
----------5-------------------------------------------------------------------
----------5-------------------------------------------------------------------
 passing by   (repeat with next lyrics  then repeat "you don't care bout how  

------------------------------------------------------------------------------
------------------------------------------------------------------------------
------------------------------------------------------------------------------
------------------------------------------------------------------------------
------------------------------------------------------------------------------
------------------------------------------------------------------------------
 i feel" X4 then "i don't feel/hear/speak Anymore!" and that's it. Have Fun!
comments
We did not receive enough feedback on this tab! Please rate:
print report bad tab
1 2 3 4 5
I want to post or [tab]
guest
You may want to rate the tab now too:
select rating
Please do not post tabs as comments. Select "correction" instead!