Oops, an error
Loading. Please wait.

Boom tab

version 4
version 4

Whole song

Interactive

14,494 views 9 this week
7 commentsread comments
1 2 3 4 5
x 11
add to favorites
×
Save as Personal and add changes to this tab that will be seen only by you. Learn more ›
×
You can save this tab as Personal to edit and correct it or add notes. All changes will be seen only by you. Learn more »
launch autoscroll
font size
0
reset
how to read this tab
guitar tuner
backing track
0:00
0:00
edit
Autoscroll
slow
fast
+/-
esc
set tempo
stop
Song: Boom!
Artist: System Of A Down

Gtr I- Distorted Electric  (C,G,C,F,A,D)
Gtr II- Distorted Electric  (C,G,C,F,A,D)

   Intro
   4/4
   150 bpm

    Gtr I
     Q    Q    Q    Q   x7  Q    Q    Q    Q
D||----------------------|----------------------|
A||----------------------|----------------------|
F||*--------------------*|----------------------|
C||*--------------------*|----------------------|
G||----------------------|----------------------|
C||--1----1----0----0----|--1----1----0---------|



    Verse

    S S S S S S S S S S S S S S S S    S S S S S S S S S S S S S S S S  
|-----------------------------------|----------------------------------|
|-----------------------------------|----------------------------------|
|*----------------------------------|----------------------------------|
|*------------------7-7-------------|------------------7-7-------------|
|---5-5-7-7-8-8-7-7-----8-8-7-7-8-8-|--5-5-7-7-8-8-7-7-----8-8-7-7-8-8-|
|-----------------------------------|----------------------------------|

  S S S S S S S S S S S S S S S S    S S S S S S S S S S S S S S S S  
|----------------------------------|----------------------------------|
|----------------------------------|----------------------------------|
|----------------------------------|----------------------------------|
|------------------6-6-------------|------------------6-6-------------|
|--4-4-6-6-7-7-6-6-----7-7-6-6-7-7-|--4-4-6-6-7-7-6-6-----7-7-6-6-7-7-|
|----------------------------------|----------------------------------|

  S S  S  S  S  S  S  S  S  S  S  S  S  S  S  S   
|------------------------------------------------|
|------------------------------------------------|
|------------------------------------------------|
|------------------------10-10-------------------|
|--8-8-10-10-11-11-10-10-------11-11-10-10-11-11-|
|------------------------------------------------|

  S S  S  S  S  S  S  S  S  S  S  S  S  S  S  S  
|------------------------------------------------|
|------------------------------------------------|
|------------------------------------------------|
|------------------------10-10-------------------|
|--8-8-10-10-11-11-10-10-------11-11-10-10-11-11-|
|------------------------------------------------|

   S S S S S S S S S S S S S S S S    S S S S S S S S S S S S S S S S  
|----------------------------------|----------------------------------|
|----------------------------------|----------------------------------|
|----------------------------------|----------------------------------|
|------------------8-8-------------|------------------8-8-------------|
|--6-6-8-8-9-9-8-8-----9-9-8-8-9-9-|--6-6-8-8-9-9-8-8-----9-9-8-8-9-9-|
|----------------------------------|----------------------------------|

  S S S S S S S S S S S S S S S S    S S S S S S S S S S S S S S S S  
|----------------------------------|----------------------------------|
|----------------------------------|----------------------------------|
|----------------------------------|----------------------------------|
|----------------------------------|----------------------------------|
|--5-5-7-7-8-8-7-7-5-5-7-7-8-8-7-7-|--5-5-7-7-8-8-7-7-5-5-7-7-8-8-7-7-|
|----------------------------------|----------------------------------|
| Gtr II
|   E   E   E   E   E   E   E   E      E   E   E   E   E   E   E   E   
|----------------------------------|----------------------------------|
|----------------------------------|----------------------------------|
|--14------14------13------13------|--14------14------13------13------|
|------12------12------12------12--|------12------12------12------12--|
|----------------------------------|----------------------------------|
|----------------------------------|----------------------------------|

  S S S S S S S S S S S S S S S S    S S S S S S S S S S S S S S S S  
|----------------------------------|----------------------------------|
|----------------------------------|----------------------------------|
|----------------------------------|----------------------------------|
|----------------------------------|----------------------------------|
|--4-4-6-6-7-7-6-6-4-4-6-6-7-7-6-6-|--4-4-6-6-7-7-6-6-4-4-6-6-7-7-6-6-|
|----------------------------------|----------------------------------|
|
|   E   E   E   E   E   E   E   E      E   E   E   E   E   E   E   E   
|----------------------------------|----------------------------------|
|----------------------------------|----------------------------------|
|--14------14------13------13------|--14------14------13------13------|
|------12------12------12------12--|------12------12------12------12--|
|----------------------------------|----------------------------------|
|----------------------------------|----------------------------------|

  S S  S  S  S  S  S  S S S  S  S  S  S  S  S   
|----------------------------------------------|
|----------------------------------------------|
|----------------------------------------------|
|----------------------------------------------|
|--8-8-10-10-11-11-10-10-8-8-10-10-11-11-10-10-|
|----------------------------------------------|
|
|   E   E     E     E    E    E     E     E     
|----------------------------------------------|
|-----------------------12---13----------------|
|------14----13----14--------------------------|
|--12------------------------------15----14----|
|----------------------------------------------|
|----------------------------------------------|

  S S  S  S  S  S  S  S S S  S  S  S  S  S  S  
|----------------------------------------------|
|----------------------------------------------|
|----------------------------------------------|
|----------------------------------------------|
|--8-8-10-10-11-11-10-10-8-8-10-10-11-11-10-10-|
|----------------------------------------------|
|
|   E   E     E     E    E    E     E     E     
|----------------------------------------------|
|-----------------------12---13----------------|
|------14----13----14--------------------------|
|--12------------------------------15----14----|
|----------------------------------------------|
|----------------------------------------------|
  S S S S S S S S S S S S S S S S    S S S S S S S S S S S S S S S S  
|----------------------------------|----------------------------------|
|----------------------------------|----------------------------------|
|----------------------------------|----------------------------------|
|----------------------------------|----------------------------------|
|--6-6-8-8-9-9-8-8-6-6-8-8-9-9-8-8-|--6-6-8-8-9-9-8-8-6-6-8-8-9-9-8-8-|
|----------------------------------|----------------------------------|
|
|   E   E   E   E   E   E   E   E      E   E   E   E   E   E   E   E   
|----------------------------------|----------------------------------|
|------------------12--13----------|------------------12--13----------|
|------14--13--14------------------|------14--13--14------------------|
|--12----------------------15--14--|--12----------------------15--14--|
|----------------------------------|----------------------------------|
|----------------------------------|----------------------------------|

  Chorus

   Q    S S S S Q    S S S S    Q    S S S S Q    S S S S  
|----------------------------|----------------------------|
|----------------------------|----------------------------|
|----------------------------|----------------------------|
|--0------------0------------|--0------------0------------|
|--0------------0------------|--0------------0------------|
|--0----0-0-0-0-0----0-0-0-0-|--0----0-0-0-0-0----0-0-0-0-|


   Q    Q    Q    Q       Q    Q    Q    Q       Q    Q    Q    Q     
|----------------------|----------------------|----------------------|
|----------------------|----------------------|----------------------|
|----------------------|----------------------|----------------------|
|----------------------|----------------------|----------------------|
|--1----1----0----0----|--1----1----0----0----|--1----1----0----0----|
|--1----1----0----0----|--1----1----0----0----|--1----1----0----0----|


   Q    Q    Q    Q       Q    S S S S Q    S S S S  
|----------------------|----------------------------|
|----------------------|----------------------------|
|----------------------|----------------------------|
|----------------------|--0------------0------------|
|--1----1----0----0----|--0------------0------------|
|--1----1----0----0----|--0----0-0-0-0-0----0-0-0-0-|


   Q    S S S S Q    S S S S      E  E  E  E  E  E  E  E   
|-----------------------------||--------------------------|
|-----------------------------||--------------------------|
|----------------------------*||--------------------------|
|--0------------0------------*||--------------------------|
|--0------------0-------------||--0-----0-----0-----0-----|
|--0----0-0-0-0-0----0-0-0-0--||--0-----0-----0-----0-----|


   E  E  E  E  E  Q.     
|-------------------------|
|-------------------------|
|-------------------------|
|-------------------------|
|--0-----0-----0----------|
|--0-----0-----0----------|

   Interlude

    W                   H        H         
|--------------------|--------------------|
|--------------------|--------------------|
|*-------------------|--------------------|
|*--0----------------|-(0)-------7--------|
|---0----------------|-(0)-------7--------|
|---0----------------|-(0)-------7--------|
   W                   H        H           H         H         
|-------------------|--------------------|---------------------|
|-------------------|--------------------|---------------------|
|-------------------|--------------------|---------------------|
|--6----------------|-(6)-------7--------|--9--------10--------|
|--6----------------|-(6)-------7--------|--9--------10--------|
|--6----------------|-(6)-------7--------|--9--------10--------|


  H        H            H        Q.     E     E  E  E  E  E  E  Q       
|--------------------|---------------------|--------------------------|
|--------------------|---------------------|--------------------------|
|--------------------|---------------------|-------------------------*|
|-(10)------3--------|--2--------2------2--|--2--2--2--2--2--2--2----*|
|-(10)------3--------|--2--------2------2--|--2--2--2--2--2--2--2-----|
|-(10)------3--------|--2--------2------2--|--2--2--2--2--2--2--2-----|

    Chorus/Outro

   Q    S S S S Q    S S S S  
|----------------------------|
|----------------------------|
|----------------------------|
|--0------------0------------|
|--0------------0------------|
|--0----0-0-0-0-0----0-0-0-0-|


  Q    S S S S Q    S S S S    Q    Q    Q    Q       Q    Q    Q    Q     
|----------------------------|----------------------|----------------------|
|----------------------------|----------------------|----------------------|
|----------------------------|----------------------|----------------------|
|--0------------0------------|----------------------|----------------------|
|--0------------0------------|--1----1----0----0----|--1----1----0----0----|
|--0----0-0-0-0-0----0-0-0-0-|--1----1----0----0----|--1----1----0----0----|


   Q    Q    Q    Q       Q    Q    Q    Q       Q    S S S S Q    S S S S  
|----------------------|----------------------|----------------------------|
|----------------------|----------------------|----------------------------|
|----------------------|----------------------|----------------------------|
|----------------------|----------------------|--0------------0------------|
|--1----1----0----0----|--1----1----0----0----|--0------------0------------|
|--1----1----0----0----|--1----1----0----0----|--0----0-0-0-0-0----0-0-0-0-|


   Q    S S S S Q    S S S S    E  E  E  E  E  E  E  E   
|----------------------------|--------------------------|
|----------------------------|--------------------------|
|----------------------------|--------------------------|
|--0------------0------------|--------------------------|
|--0------------0------------|--0-----0-----0-----0-----|
|--0----0-0-0-0-0----0-0-0-0-|--0-----0-----0-----0-----|


   E  E  E  E  E  E  E  E     Q    Q    Q    Q       Q    Q    E   Q.   
|--------------------------|----------------------|-----------------------||
|--------------------------|----------------------|-----------------------||
|--------------------------|----------------------|-----------------------||
|--------------------------|----------------------|-----------------------||
|--0-----0-----0-----0-----|--1----1----0----0----|--1----1----0----------||
|--0-----0-----0-----0-----|--1----1----0----0----|--1----1----0----------||
Suggest correction
Creating personal tab
Creating personal tab
You can edit any tab online and save it as your Personal.

You can edit, replace or remove any tab part or add personal notes – all changes will be seen only by you.

Personal tabs can be accessed anytime from any device, even offline.
Learn more »
comments
print report bad tab
7 comments total. Showing first comments.
0 reply
Lord Of Donkeys 230 Jun 28, 2007 08:14 AM

sorry about the row of Q's after the first line

+1 reply
Robbertto 30 Feb 19, 2008 06:55 PM

palm mutes might help xP lol im only not sure at:

|----------------------------------|----------------------------------|
|------------------12--13----------|------------------12--13----------|
|------14--13--14------------------|------14--13--14------------------|
|--12----------------------15--14--|--12----------------------15--14--|
|----------------------------------|----------------------------------|
|----------------------------------|----------------------------------|

k thanks

0 reply
Lord Of Donkeys 230 Feb 22, 2008 04:42 PM

yeah, I think you're right. I'll update it soon

guest
You may want to rate the tab now too:
select rating
Wanna post a correction for this tab? Suggest correction