Oops, an error
Loading. Please wait.

Bubbles bass

version 4
version 4

Whole song

Interactive

2,337 views 1 this week
1 commentread comment
1 2 3 4 5
x 4
add to favorites
×
Save as Personal and add changes to this tab that will be seen only by you. Learn more ›
×
You can save this tab as Personal to edit and correct it or add notes. All changes will be seen only by you. Learn more »
launch autoscroll
font size
0
reset
guitar tuner
edit
Autoscroll
slow
fast
+/-
esc
set tempo
stop
*********************
SOAD - Bubbles
*********************

-tabbed by "zero83", please rate! =)
-Also VISIT MY BAND at: www.youtube.com/user/ZEROSYSTEMband/videos

F:---------|
C:---------|
G:---------|
C:-6-6-6-6-|

F:--------------------------------|---------------------------------|
C:--------------------------------|---------------------------------|(2x)
G:--------------------------------|---------------------------------|
C:-3-5-5-5-3-5-5-5-3-5-5-5-3-5-5-5|-3-5-5-5-3-5-5-5-3-5-5-5-6-6-6-6-|

(0:11)
F:-------------------------------|
C:-------------------------------|(6x)
G:-------------------------------|
C:--3-5--5-3--5--3-5--5-6-6-6-6--|

(0:28)
F:---------------------------------|
C:---------------------------------|(2x)
G:---------------------------------|
C:-3-5-5-5-3-5-5-5-3-5-5-5-6-6-6-6-|

(0:34)
F:-------------------------------|
C:-------------------------------|(2x)
G:-------------------------------|
C:--3-5--5-3--5--3-5--5-6-6-6-6--|

(0:39)
F:-------------------------------|
C:-------------------------------|
G:-------------------------------|
C:--5------------5------6-6-6-6--|

(0:42)
F:-------------------------------|
C:-------------------------------|(4x)
G:-------------------------------|
C:--3-5--5-3--5--3-5--5-6-6-6-6--|

(0:53)
F:---------------------------------|
C:---------------------------------|(2x)
G:---------------------------------|
C:-3-5-5-5-3-5-5-5-3-5-5-5-6-6-6-6-|

(0:59)
F:-------------------------------|
C:-------------------------------|(4x)
G:-------------------------------|
C:--3-5--5-3--5--3-5--5-6-6-6-6--|

(1:11)
F:---------------|
C:---------------|(11x)
G:---------------|
C:--3-8--5-6--5--|         

F:---------------|
C:---------------|
G:---------------|
C:--5------------|

F:---------------|
C:---------------|(7x)
G:---------------|
C:--3-8--5-6--5--|                    

(1:39)
F:---------------------------------|
C:---------------------------------|(2x)
G:---------------------------------|
C:-3-5-5-5-3-5-5-5-3-5-5-5-6-6-6-6-|

(1:45)
F:-------------------------------|
C:-------------------------------|(2x)
G:-------------------------------|
C:--3-5--5-3--5--3-5--5-6-6-6-6--|

F:-------------------------------|
C:-------------------------------|(2x)
G:-------------------------------|
C:--3-5~-5-3~-5~-3-5~-5-6-6-6-6--|
Suggest correction
Creating personal tab
Creating personal tab
You can edit any tab online and save it as your Personal.

You can edit, replace or remove any tab part or add personal notes – all changes will be seen only by you.

Personal tabs can be accessed anytime from any device, even offline.
Learn more »
comments
print report bad tab
1 comment total.
0 reply
scorpionx 51 Oct 16, 2010 05:17 AM

Awesome too! Thank You! Please, do more basslines!

guest
You may want to rate the tab now too:
select rating
Wanna post a correction for this tab? Suggest correction