Oops, an error
Loading. Please wait.
16,105 views 1 this week
1 commentread comment
1 2 3 4 5
x 5
add to favorites
×
Save as Personal and add changes to this tab that will be seen only by you. Learn more ›
×
You can save this tab as Personal to edit and correct it or add notes. All changes will be seen only by you. Learn more »
launch autoscroll
font size
0
reset
guitar tuner
backing track
0:00
0:00
edit
Autoscroll
slow
fast
+/-
esc
set tempo
stop
B.Y.O.B.
By: System Of A Down
Album: Mezmerize
Bassist: Shavo Odadjian
Tuning: Drop C#
Tabbed by Darksamus111


Intro
|--------------------------------|--------------------------------|
|--------------------------------|--------------------------------|
|------------------------7--8--10|------------------------10-8--7-|
|0-7-08007-08007-0-7-0800--------|0-7-08007-08007-0-7-0800--------|

|--------------------------------|--------------------------------|
|--------------------------------|--------------------------------|
|------------------------7--8--10|------------------------10-8--7-|
|0-7-08007-08007-0-7-0800--------|0-7-08007008007-0-7-0800--------|



Verse 1
|--------------------------|----------------------------|
|--------------------------|----------------------------|
|----------------------8---|------------10~~~~~~8---7---| X2
|7008007008007008007-------|700800700800----------------|

|------------------------|--------------------------|
|------------------------|--------------------------|
|------------------------|----------------------8~~~|
|700800700800700800700800|7008007008007008007-------|

|------------------------|----------------------------|
|------------------------|----------------------------|
|------------------------|------------10~~~~~~8~~~--7-|
|700800700800700800700800|700800700800----------------|



Pre-Chorus
|--------------------------------|--------------------------------|
|--------------------------------|--------------------------------|
|875---5-----------3---3--357875-|----------------------3--33--33-|
|---------023532020--------------|320---0--3578753532-------------|



Chorus 1
|--------------------------------|--------------------------------|
|--------------------------------|--------------------------------|
|555---5--55--55-333---3--33--33-|555---5---------------3--33--33-|
|--------------------------------|---------3578753532-------------|

|--------------------------------|--------------------------------|
|--------------------------------|--------------------------------|
|555---5--55--55-333---3--33--33-|555---5---------------3~~~~~~~~~|
|--------------------------------|---------3578753532-------------|



Verse 2
|------------------------|--------------------------|
|------------------------|--------------------------|
|------------------------|----------------------8~~~|
|700800700800700800700800|7008007008007008007-------|

|------------------------|----------------------------|
|------------------------|----------------------------|
|------------------------|------------10~~~~~~8~~~7~~~|
|700800700800700800700800|700800700800----------------|

|--------------------------|----------------------------|
|--------------------------|----------------------------|
|----------------------8---|------------10~~~~~~8~~~7~~~|
|7008007008007008007-------|700800700800----------------|

|--------------------------|----------------------------|
|--------------------------|----------------------------|
|----------------------8---|------------10~~~~~~8~~~--7-|
|7008007008007008007-------|700800700800----------------|



Then do the Pre-Chorus



Chorus 2
|--------------------------------|--------------------------------|
|--------------------------------|--------------------------------|
|555---5--55--55-333---3--33--33-|555---5---------------3--33--33-| X3
|--------------------------------|---------3578753532-------------|

|--------------------------------|--------------------------------|
|--------------------------------|--------------------------------|
|555---5--55--55-333---3--33--33-|555---5---------------3~~~~~~~~~|
|--------------------------------|---------3578753532-------------|



It's Party Time!
|--------------------------------|
|--------------------------------|
|-000-00-3-0010-0-000-00-330010-0| X4
|0-------------0-0-------------0-|



Why Do They Always Send the Poor? 1
|--------------------------------|
|--------------------------------|
|55555555333333337000000070080070| X2
|--------------------------------|

|--------------------------------|--------------------------------|
|--------------------------------|--------------------------------|
|5-55-55-3-33-33-7000000070080070|5-55-55-3-33333-0---------------|
|--------------------------------|--------------------------------|

|--------------------------------|--------------------------------|
|--------------------------------|--------------------------------|
|--------------------------------|--------------------------------|
|0---------------0---------------|0-------------------------------|



For the 3rd Verse just repeat Verse 2
Followed by the Pre-Chorus




Chorus 3
|--------------------------------|--------------------------------|
|--------------------------------|--------------------------------|
|555---5--55--55-333---3--33--33-|555---5---------------3--33--33-| X3
|--------------------------------|---------3578753532-------------|

|--------------------------------|
|--------------------------------|
|555---5--55--55-333---3--33--33-|
|--------------------------------|



Why Do They Always Send the Poor? 2
|--------------------------------|
|--------------------------------|
|55555555333333337000000070080070| X2
|--------------------------------|

|--------------------------------|--------------------------------|
|--------------------------------|--------------------------------|
|5-55-55-3-33-33-7000000070080070|5-55-55-3-33-33-0---------------|
|--------------------------------|--------------------------------|

|--------------------------------|12121211111111101010109999------|
|--------------------------------|--------------------------------|
|--------------------------------|--------------------------------|
|0---------------0---------------|--------------------------------|



Outro
|--------------------------------|
|--------------------------------|
|07000000070080070700000007008007| X4
|--------------------------------|

            
            
Suggest correction
Creating personal tab
Creating personal tab
You can edit any tab online and save it as your Personal.

You can edit, replace or remove any tab part or add personal notes – all changes will be seen only by you.

Personal tabs can be accessed anytime from any device, even offline.
Learn more »
comments
print report bad tab
1 comment total.
0 reply
gainesharry8 22 Sep 12, 2016 10:57 AM

didn't like this contribution

guest
You may want to rate the tab now too:
select rating
Wanna post a correction for this tab? Suggest correction