Oops, an error
Loading. Please wait.
802 views 3 this week
no commentswrite comment
1 2 3 4 5
3 more votes to show rating
add to favorites
×
Save as Personal and add changes to this tab that will be seen only by you. Learn more ›
×
You can save this tab as Personal to edit and correct it or add notes. All changes will be seen only by you. Learn more »
launch autoscroll
font size
0
reset
how to read this tab
guitar tuner
backing track
0:00
0:00
edit
Autoscroll
slow
fast
+/-
esc
set tempo
stop
[Intro]

E|---------------------------------------------------------|
B|---------------------------------------------------------|
G|---------------------------------------------------------|   (3x)
D|-7p0-0-0-0-0-0-0-7p0-0-8p0-0-7p0-------------------------|
A|---------------------------------------------------------|
E|---------------------------------------------------------|


E|---------------------------------------------------------|
B|---------------------------------------------------------|
G|---------------------------------------------------------|   (3x)
D|-7p0-0-8p0-0-7p0-7p0-0-8p0-0-7p0-------------------------|
A|---------------------------------------------------------|
E|---------------------------------------------------------|

You!

(x2)

E|----------------------------------------------------------|
B|----------------------------------------------------------|
G|----------------------------------------------------------|
D|----------------------------------------------------------|
A|----------------------------------------------------------|
E|-0-0-7p0-0-8p0-0-7p0-0-8p0-0-7p0-0-0-7p0-0-8p0-0----------|



E|-----------------------------------------------------|
B|-----------------------------------------------------|
G|-4---5---7-------------------------------------------|
D|-2---3---5-------------------------------------------|
A|-----------------------------------------------------|
E|-----------------------------------------------------|


E|----------------------------------------------------------|
B|----------------------------------------------------------|
G|----------------------------------------------------------|
D|----------------------------------------------------------|
A|----------------------------------------------------------|
E|-0-0-7p0-0-8p0-0-7p0-0-8p0-0-7p0-0-0-7p0-0-8p0-0----------|


E|-----------------------------------------------------|
B|-----------------------------------------------------|
G|-----------------------------------------------------|
D|-7---5---4-------------------------------------------|
A|-5---3---2-------------------------------------------|
E|-----------------------------------------------------|


[Verse 1]

Why do they always send the poor?

Barbarisms by Barbaras, with pointed heels,
E|-----------------------------------------------------------|
B|-----------------------------------------------------------|
G|-----------------------------------------------------------|
D|------------------------------------------10---------------|
A|------------------------------------------8----------------|
E|-7-0-0-8-0-0-7-0-0-8-0-0-7-0-0-8-0-0-7---------------------|

with pointed heels,
E|-----------------------------------------------------------|
B|-----------------------------------------------------------|
G|-----------------------------------------------------------|
D|---------------------------12--10--9-----------------------|
A|---------------------------10--8---7-----------------------|
E|-7-0-0-8-0-0-7-0-0-8-0-------------------------------------|

Victorious, victories kneel,
E|-----------------------------------------------------------|
B|-----------------------------------------------------------|
G|-----------------------------------------------------------|
D|------------------------------------------10---------------|
A|------------------------------------------8----------------|
E|-7-0-0-8-0-0-7-0-0-8-0-0-7-0-0-8-0-0-7---------------------|

For brand new spankin' deals.
E|-----------------------------------------------------------|
B|-----------------------------------------------------------|
G|-----------------------------------------------------------|
D|---------------------------12--10--9-----------------------|
A|---------------------------10--8---7-----------------------|
E|-7-0-0-8-0-0-7-0-0-8-0-------------------------------------|

Marching forward hypocritic and hypnotic computers,

E|-----------------------------------------------------------|
B|-----------------------------------------------------------|
G|-----------------------------------------------------------|
D|------------------------------------------10---------------|
A|------------------------------------------8----------------|
E|-7-0-0-8-0-0-7-0-0-8-0-0-7-0-0-8-0-0-7---------------------|

You depend on our protection,
E|-----------------------------------------------------------|
B|-----------------------------------------------------------|
G|-----------------------------------------------------------|
D|-----------------------------------------------------------|
A|-----------------------------------------------------------|
E|-7-0-0-8-0-0-7-0-0-8-0-0-7-0-0-8-0-0-7-0-0-8-0-0-----------|

Yet you feed us lies from the tablecloth.
E|-----------------------------------------------------------|
B|-----------------------------------------------------------|
G|-----------------------------------------------------------|
D|-----------------------------------------------------------|
A|-------------------------5---3---2-----3--2--0-------------|
E|-7-0-0-8-0-0-7-0-0-8-0---5---3---2-----3--2--0-------------|

E|---------------------------------------------------|
B|---------------------------------------------------|
G|---------------------------------------------------|
D|--------------------------5---5------3-2-0---------|
A|-0---0--0-2-3-5-3-2-0-2-0-3---3--0-3--------3-2----|
E|-0---0--0-2-3-5-3-2-0-2-0-------------------3-2----|


[Chorus]

La la la la la la ooooooo
E|------------------------------------------------------|
B|------------------------------------------------------|
G|------------------------------------------------------|
D|------------------------------------------------------|
A|-0---0--0-5-7-8-7-5-3-5-3-2---3b4r3b4r3b4r3-----------|
E|-0---0--0-5-7-8-7-5-3-5-3-2---------------------------|

Everybody's going to the party have a real good time,
E|----------------------------------------------------|
B|----------------------------------------------------|
G|----------------------------------------------------|
D|--------------------------5-5-5---5---5-5--5-5-5----|
A|--0-0-0---0---0-0---0-0-0-3-3-3---3---3-3--3-3-3----|
E|--0-0-0---0---0-0---0-0-0---------------------------|

E|-------------------------------------------------------|
B|-------------------------------------------------------|
G|-------------------------------------------------------|
D|-------------------------------------------------------|
A|--0-0-0---0---0-5-7-8-7-5-3-5-3-2--3b4r3b4r3b4r3-------|
E|--0-0-0---0---0-5-7-8-7-5-3-5-3-2----------------------|

Dancing in the desert blowing up the sunshine.
E|----------------------------------------------------|
B|----------------------------------------------------|
G|----------------------------------------------------|
D|--------------------------5-5-5---5---5-5--5-5-5----|
A|--0-0-0---0---0-0---0-0-0-3-3-3---3---3-3--3-3-3----|
E|--0-0-0---0---0-0---0-0-0---------------------------|

E|-------------------------------------------------------|
B|-------------------------------------------------------|
G|-------------------------------------------------------|
D|-------------------------------------------------------|
A|--0-0-0---0---0-5-7-8-7-5-3-5-3-2--3b4r3b4r3b4r3-------|
E|--0-0-0---0---0-5-7-8-7-5-3-5-3-2----------------------|


[Verse 2]

Kneeling roses disappearing into moses' dry mouth,
E|-----------------------------------------------------------|
B|-----------------------------------------------------------|
G|-----------------------------------------------------------|
D|------------------------------------------10---------------|
A|------------------------------------------8----------------|
E|-7-0-0-8-0-0-7-0-0-8-0-0-7-0-0-8-0-0-7---------------------|

Breaking into Fort Knox stealing our intentions.
E|-----------------------------------------------------------|
B|-----------------------------------------------------------|
G|-----------------------------------------------------------|
D|---------------------------12--10--9-----------------------|
A|---------------------------10--8---7-----------------------|
E|-7-0-0-8-0-0-7-0-0-8-0-------------------------------------|

Hangers sitting dripped in oil, 
E|-----------------------------------------------------------|
B|-----------------------------------------------------------|
G|-----------------------------------------------------------|
D|------------------------------------------10---------------|
A|------------------------------------------8----------------|
E|-7-0-0-8-0-0-7-0-0-8-0-0-7-0-0-8-0-0-7---------------------|

crying freedom!
E|-----------------------------------------------------------|
B|-----------------------------------------------------------|
G|-----------------------------------------------------------|
D|---------------------------12--10--9-----------------------|
A|---------------------------10--8---7-----------------------|
E|-7-0-0-8-0-0-7-0-0-8-0-------------------------------------|

Handed to obsoletion,
E|-----------------------------------------------------------|
B|-----------------------------------------------------------|
G|-----------------------------------------------------------|
D|------------------------------------------10---------------|
A|------------------------------------------8----------------|
E|-7-0-0-8-0-0-7-0-0-8-0-0-7-0-0-8-0-0-7---------------------|

Still you feed us lies from the tablecloth.
E|-----------------------------------------------------------|
B|-----------------------------------------------------------|
G|-----------------------------------------------------------|
D|-----------------------------------------------------------|
A|-------------------------5---3---2-----3--2--0-------------|
E|-7-0-0-8-0-0-7-0-0-8-0---5---3---2-----3--2--0-------------|

E|---------------------------------------------------|
B|---------------------------------------------------|
G|---------------------------------------------------|
D|--------------------------5---5------3-2-0---------|
A|-0---0--0-2-3-5-3-2-0-2-0-3---3--0-3--------3-2----|
E|-0---0--0-2-3-5-3-2-0-2-0-------------------3-2----|


[Chorus]

La la la la la la ooooooo
E|------------------------------------------------------|
B|------------------------------------------------------|
G|------------------------------------------------------|
D|------------------------------------------------------|
A|-0---0--0-5-7-8-7-5-3-5-3-2---3b4r3b4r3b4r3-----------|
E|-0---0--0-5-7-8-7-5-3-5-3-2---------------------------|

Everybody's going to the party have a real good time,
E|----------------------------------------------------|
B|----------------------------------------------------|
G|----------------------------------------------------|
D|--------------------------5-5-5---5---5-5--5-5-5----|
A|--0-0-0---0---0-0---0-0-0-3-3-3---3---3-3--3-3-3----|
E|--0-0-0---0---0-0---0-0-0---------------------------|

E|-------------------------------------------------------|
B|-------------------------------------------------------|
G|-------------------------------------------------------|
D|-------------------------------------------------------|
A|--0-0-0---0---0-5-7-8-7-5-3-5-3-2--3b4r3b4r3b4r3-------|
E|--0-0-0---0---0-5-7-8-7-5-3-5-3-2----------------------|

Dancing in the desert blowing up the sunshine.
E|----------------------------------------------------|
B|----------------------------------------------------|
G|----------------------------------------------------|
D|--------------------------5-5-5---5---5-5--5-5-5----|
A|--0-0-0---0---0-0---0-0-0-3-3-3---3---3-3--3-3-3----|
E|--0-0-0---0---0-0---0-0-0---------------------------|

E|-------------------------------------------------------|
B|-------------------------------------------------------|
G|-------------------------------------------------------|
D|-------------------------------------------------------|
A|--0-0-0---0---0-5-7-8-7-5-3-5-3-2--3b4r3b4r3b4r3-------|
E|--0-0-0---0---0-5-7-8-7-5-3-5-3-2----------------------|

Everybody's going to the party have a real good time,
E|----------------------------------------------------|
B|----------------------------------------------------|
G|----------------------------------------------------|
D|--------------------------5-5-5---5---5-5--5-5-5----|
A|--0-0-0---0---0-0---0-0-0-3-3-3---3---3-3--3-3-3----|
E|--0-0-0---0---0-0---0-0-0---------------------------|

E|-------------------------------------------------------|
B|-------------------------------------------------------|
G|-------------------------------------------------------|
D|-------------------------------------------------------|
A|--0-0-0---0---0-5-7-8-7-5-3-5-3-2--3b4r3b4r3b4r3-------|
E|--0-0-0---0---0-5-7-8-7-5-3-5-3-2----------------------|

Dancing in the desert blowing up the sunshine.
E|----------------------------------------------------|
B|----------------------------------------------------|
G|----------------------------------------------------|
D|--------------------------5-5-5---5---5-5--5-5-5----|
A|--0-0-0---0---0-0---0-0-0-3-3-3---3---3-3--3-3-3----|
E|--0-0-0---0---0-0---0-0-0---------------------------|

E|-------------------------------------------------------|
B|-------------------------------------------------------|
G|-------------------------------------------------------|
D|-------------------------------------------------------|
A|--0-0-0---0---0-5-7-8-7-5-3-5-3-2--3b4r3b4r3b4r3-------|
E|--0-0-0---0---0-5-7-8-7-5-3-5-3-2----------------------|


[Hook]

Blast off, it's party time,
And we don't live in a fascist nation!
Blast off, it's party time,
And where the fuck are you?
E|---------------------------------------------------------------|
B|---------------------------------------------------------------|
G|---------------------------------------------------------------|   (8x)
D|---------------------------------------------------------------|
A|---------------------------------------------------------------|
D|-5/7-7-7-7-7-7-7-10p7-7-8p7-7-5-5------------------------------|

Where the fuck are you?
Where the fuck are you?
Why don't presidents fight the war?
Why do they always send the poor?
Why don't presidents fight the war?

(x4)
E|-----------------------------------------------------------|
B|-----------------------------------------------------------|
G|-----------------------------------------------------------|
D|-----------------------------------------------------------|
A|-----------------------------------------------------------|
D|--12-12-12-12-12-12-12-8-8-8-8-8-8-8-8---------------------|


E|------------------------------------------------------|
B|------------------------------------------------------|
G|------------------------------------------------------|
D|------------------------------------------------------|
A|-0-0-0-0-0-0-0-0-7p0-0-8p0-0-7p0----------------------|
D|------------------------------------------------------|

Why do they always send the poor?
Why do they always send the poor?
Why do they always send the poor?

E|------------------------------------------------------|
B|------------------------------------------------------|
G|------------------------------------------------------|   (x3)
D|-7----------------------------------------------------|   
A|-7--7p0-0-8p0-0-7p0-----------------------------------|
D|-7----------------------------------------------------|

Why do they always send the poor?


[Bridge]

Kneeling roses disappearing into moses' dry mouth,
E|-----------------------------------------------------------|
B|-----------------------------------------------------------|
G|-----------------------------------------------------------|
D|------------------------------------------10---------------|
A|------------------------------------------8----------------|
E|-7-0-0-8-0-0-7-0-0-8-0-0-7-0-0-8-0-0-7---------------------|

Breaking into Fort Knox stealing our intentions.
E|-----------------------------------------------------------|
B|-----------------------------------------------------------|
G|-----------------------------------------------------------|
D|---------------------------12--10--9-----------------------|
A|---------------------------10--8---7-----------------------|
E|-7-0-0-8-0-0-7-0-0-8-0-------------------------------------|

Hangers sitting dripped in oil, 
E|-----------------------------------------------------------|
B|-----------------------------------------------------------|
G|-----------------------------------------------------------|
D|------------------------------------------10---------------|
A|------------------------------------------8----------------|
E|-7-0-0-8-0-0-7-0-0-8-0-0-7-0-0-8-0-0-7---------------------|
crying freedom!
E|-----------------------------------------------------------|
B|-----------------------------------------------------------|
G|-----------------------------------------------------------|
D|---------------------------12--10--9-----------------------|
A|---------------------------10--8---7-----------------------|
E|-7-0-0-8-0-0-7-0-0-8-0-------------------------------------|

Handed to obsoletion,
E|-----------------------------------------------------------|
B|-----------------------------------------------------------|
G|-----------------------------------------------------------|
D|------------------------------------------10---------------|
A|------------------------------------------8----------------|
E|-7-0-0-8-0-0-7-0-0-8-0-0-7-0-0-8-0-0-7---------------------|

Still you feed us lies from the tablecloth.
E|-----------------------------------------------------------|
B|-----------------------------------------------------------|
G|-----------------------------------------------------------|
D|-----------------------------------------------------------|
A|-------------------------5---3---2-----3--2--0-------------|
E|-7-0-0-8-0-0-7-0-0-8-0---5---3---2-----3--2--0-------------|

E|---------------------------------------------------|
B|---------------------------------------------------|
G|---------------------------------------------------|
D|--------------------------5---5------3-2-0---------|
A|-0---0--0-2-3-5-3-2-0-2-0-3---3--0-3--------3-2----|
E|-0---0--0-2-3-5-3-2-0-2-0-------------------3-2----|


[Chorus]

La la la la la la ooooooo
E|------------------------------------------------------|
B|------------------------------------------------------|
G|------------------------------------------------------|
D|------------------------------------------------------|
A|-0---0--0-5-7-8-7-5-3-5-3-2---3b4r3b4r3b4r3-----------|
E|-0---0--0-5-7-8-7-5-3-5-3-2---------------------------|

Everybody's going to the party have a real good time,
E|----------------------------------------------------|
B|----------------------------------------------------|
G|----------------------------------------------------|
D|--------------------------5-5-5---5---5-5--5-5-5----|
A|--0-0-0---0---0-0---0-0-0-3-3-3---3---3-3--3-3-3----|
E|--0-0-0---0---0-0---0-0-0---------------------------|

E|-------------------------------------------------------|
B|-------------------------------------------------------|
G|-------------------------------------------------------|
D|-------------------------------------------------------|
A|--0-0-0---0---0-5-7-8-7-5-3-5-3-2--3b4r3b4r3b4r3-------|
E|--0-0-0---0---0-5-7-8-7-5-3-5-3-2----------------------|

Dancing in the desert blowing up the sunshine.
E|----------------------------------------------------|
B|----------------------------------------------------|
G|----------------------------------------------------|
D|--------------------------5-5-5---5---5-5--5-5-5----|
A|--0-0-0---0---0-0---0-0-0-3-3-3---3---3-3--3-3-3----|
E|--0-0-0---0---0-0---0-0-0---------------------------|

E|-------------------------------------------------------|
B|-------------------------------------------------------|
G|-------------------------------------------------------|
D|-------------------------------------------------------|
A|--0-0-0---0---0-5-7-8-7-5-3-5-3-2--3b4r3b4r3b4r3-------|
E|--0-0-0---0---0-5-7-8-7-5-3-5-3-2----------------------|

Everybody's going to the party have a real good time,
E|----------------------------------------------------|
B|----------------------------------------------------|
G|----------------------------------------------------|
D|--------------------------5-5-5---5---5-5--5-5-5----|
A|--0-0-0---0---0-0---0-0-0-3-3-3---3---3-3--3-3-3----|
E|--0-0-0---0---0-0---0-0-0---------------------------|

E|-------------------------------------------------------|
B|-------------------------------------------------------|
G|-------------------------------------------------------|
D|-------------------------------------------------------|
A|--0-0-0---0---0-5-7-8-7-5-3-5-3-2--3b4r3b4r3b4r3-------|
E|--0-0-0---0---0-5-7-8-7-5-3-5-3-2----------------------|

Dancing in the desert blowing up the sunshine.
E|----------------------------------------------------|
B|----------------------------------------------------|
G|----------------------------------------------------|
D|--------------------------5-5-5---5---5-5--5-5-5----|
A|--0-0-0---0---0-0---0-0-0-3-3-3---3---3-3--3-3-3----|
E|--0-0-0---0---0-0---0-0-0---------------------------|


[Outro]

Where the fuck are you?
Where the fuck are you?
(x4)
E|-----------------------------------------------------------|
B|-----------------------------------------------------------|
G|-----------------------------------------------------------|
D|-----------------------------------------------------------|
A|-----------------------------------------------------------|
D|--12-12-12-12-12-12-12-8-8-8-8-8-8-8-8---------------------|


E|------------------------------------------------------|
B|------------------------------------------------------|
G|------------------------------------------------------|
D|------------------------------------------------------|
A|-0-0-0-0-0-0-0-0-7p0-0-8p0-0-7p0----------------------|
D|------------------------------------------------------|

Why don't presidents fight the war?
Why do they always send the poor?
Why don't presidents fight the war?
Why do they always send the poor?
Why do they always send the poor?
Why do they always send the poor?
(x2)
E|------------------------------------------------------|
B|------------------------------------------------------|
G|------------------------------------------------------|
D|------------------------------------------------------|
A|-0-0-0-0-0-0-0-0-7p0-0-8p0-0-7p0----------------------|
D|------------------------------------------------------|

E|-------------------------------------------------------|
B|-------------------------------------------------------|
G|-------------------------------------------------------|
D|-------------------------------------------------------|
A|-------------------------------------------------------|
D|-13\-12\-11\-10\-9\-8\-7\-6\-5\-4\-3\-2\-1\-0\---------|


Why do they always send the poor?
Why do they always send the poor?
Why do they always send the poor?
They always send the poor,
They always send the poor!
E|-------------------------------------------------------|
B|-------------------------------------------------------|
G|-------------------------------------------------------|   (5x)
D|-------------------------------------------------------|
A|-7p0-0-0-0-0-0-0-7p0-0-8p0-0-7p0-----------------------|
D|-------------------------------------------------------|


************************************
| p  Pull-off
| r  Release
| b  Bend
| /  Slide up
| \  Slide down
************************************

            
            
Suggest correction
Creating personal tab
Creating personal tab
You can edit any tab online and save it as your Personal.

You can edit, replace or remove any tab part or add personal notes – all changes will be seen only by you.

Personal tabs can be accessed anytime from any device, even offline.
Learn more »
Give kudos to tab author, rate the tab!
1 2 3 4 5
comments
print report bad tab
guest
You may want to rate the tab now too:
select rating
Wanna post a correction for this tab? Suggest correction