Oops, an error
Loading. Please wait.

Chic N Stu Tab

version 1
version 1

Whole song

37,887 views 48 this week
28 commentsread comments
1 2 3 4 5
x 27
add to favorites
launch autoscroll
font size
0
reset
how to read this tab
guitar tuner
backing track
0:00
0:00
×
Best way to learn
"Chic N Stu"
Autoscroll
slow
fast
+/-
esc
set tempo
stop
Author
Tuning
  follow
C G C F A D
Artist : System Of A Down
Title  : Chic N Stu

Tabbed By : Jagdeep Singh (jagdeep_1989@hotmail.com)
If U Got Any Comments Just Send To My Email Address.

The Tuning is : (CGCFAD)


[Intro]

D|--------------------------|--------------------------|
A|--14----14----14----14----|--14----14----14----14----|
F|--12----12----12----12----|--12----12----12----12----|
C|--------------------------|--------------------------|
G|--------------------------|--------------------------|
C|--------------------------|--------------------------|

D|--------------------------|--------------------------|
A|--14----14----14----14----|--14----14----14----14----|
F|--12----12----12----12----|--12----12----12----12----|
C|--------------------------|--------------------------|
G|--------------------------|--------------------------|
C|--------------------------|--------------------------|

D|--------------------------|--------------------------|
A|--14----14----14----14----|--14----14----14----14----|
F|--12----12----12----12----|--12----12----12----12----|
C|--------------------------|--------------------------|
G|--------------------------|--------------------------|
C|--------------------------|--------------------------|

D|--------------------------|--------------------------|
A|--14----14----14----14----|--14----14----14----14----|
F|--12----12----12----12----|--12----12----12----12----|
C|--------------------------|--------------------------|
G|--------------------------|--------------------------|
C|--------------------------|--------------------------|


[Verse]

     Wanted Pizza Pie                      Pizza Pizza Pie

D|--------------------------------|--------------------------------|
A|--------------------------------|--------------------------------|
F|--------------------------------|--------------------------------|
C|--------------------------------|--------------------------------|
G|--11----11--12--11--12--11--12--|--11----11--12--11--12--11--12--|
C|--11----11--12--11--12--11--12--|--11----11--12--11--12--11--12--|


    Every Minute Every Second           Buy,Buy,Buy,Buy,Buy

D|--------------------------------|--------------------------------|
A|--------------------------------|--------------------------------|
F|--------------------------------|--------------------------------|
C|--------------------------------|--------------------------------|
G|--11----11--12--11--12--11--12--|--11----11--12--11--12--11--12--|
C|--11----11--12--11--12--11--12--|--11----11--12--11--12--11--12--|


     Wanted Pizza Pie                     Pizza Pizza Pie

D|--------------------------------|--------------------------------|
A|--------------------------------|--------------------------------|
F|--------------------------------|--------------------------------|
C|--------------------------------|--------------------------------|
G|--11----11--12--11--12--11--12--|--11----11--12--11--12--11--12--|
C|--11----11--12--11--12--11--12--|--11----11--12--11--12--11--12--|


    Evert Minute Every Second           Buy,Buy,Buy,Buy,Buy

D|--------------------------------|--------------------------------|
A|--------------------------------|--------------------------------|
F|--------------------------------|--------------------------------|
C|--------------------------------|--------------------------------|
G|--11----11--12--11--12--11--12--|--11----11--12--11--12--11--12--|
C|--11----11--12--11--12--11--12--|--11----11--12--11--12--11--12--|


[Bridge]

 Pepperoni ,  Angry Peppers,  Mushroom,Olives,Chives   Pepperoni, Angry Peppers,
D|-------------------------|-------------------------|-------------------------|
A|-------------------------|-------------------------|-------------------------|
F|-------6--7--9--7--6--7--|--9--7--6--7--9--7--6----|-------6--7--9--7--6--7--|
C|-------------------------|-------------------------|-------------------------|
G|--0----------------------|-------------------------|--0----------------------|
C|--0----------------------|-------------------------|--0----------------------|

[Chorus]

  Mushroom,Olives,Chives     Need Theraphy,Therapy

D|-------------------------|------------------------------|
A|-------------------------|------------------------------|
F|--9--7--6--7--9--7--6----|------------------------------|
C|-------------------------|------------------------------|
G|-------------------------|------------------------------|
C|-------------------------|--11----11--12--11----11--12--|

  Advertising Causes Me Therapy    Need Theraphy,Therapy

D|--------------------------------|------------------------------|
A|--------------------------------|------------------------------|
F|--------------------------------|------------------------------|
C|--------------------------------|------------------------------|
G|--------------------------------|------------------------------|
C|--11----11--12--11--12--11--12--|--11----11--12--11----11--12--|

Advertising Causes Me Therapy      Need Theraphy,Therapy

D|--------------------------------|------------------------------|
A|--------------------------------|------------------------------|
F|--------------------------------|------------------------------|
C|--------------------------------|------------------------------|
G|--------------------------------|------------------------------|
C|--11----11--12--11--12--11--12--|--11----11--12--11----11--12--|

Advertising Causes Me Therapy      Need Theraphy,Therapy

D|--------------------------------|------------------------------|
A|--------------------------------|------------------------------|
F|--------------------------------|------------------------------|
C|--------------------------------|------------------------------|
G|--------------------------------|------------------------------|
C|--11----11--12--11--12--11--12--|--11----11--12--11----11--12--|

Advertising Causes Me Therapy

D|--------------------------------|--------------------------|
A|--------------------------------|--14----14----14----14----|
F|--------------------------------|--12----12----12----12----|
C|--------------------------------|--------------------------|
G|--11----11--12--11--12--11--12--|--------------------------|
C|--11----11--12--11--12--11--12--|--------------------------|

D|--------------------------|--------------------------|
A|--14----14----14----14----|--14----14----14----14----|
F|--12----12----12----12----|--12----12----12----12----|
C|--------------------------|--------------------------|
G|--------------------------|--------------------------|
C|--------------------------|--------------------------|

D|--------------------------|--------------------------------|
A|--14----14----14----14----|--------------------------------|
F|--12----12----12----12----|--------------------------------|
C|--------------------------|--------------------------------|
G|--------------------------|--11----11--12--11--12--11--12--|
C|--------------------------|--11----11--12--11--12--11--12--|

D|--------------------------------|--------------------------------|
A|--------------------------------|--------------------------------|
F|--------------------------------|--------------------------------|
C|--------------------------------|--------------------------------|
G|--11----11--12--11--12--11--12--|--11----11--12--11--12--11--12--|
C|--11----11--12--11--12--11--12--|--11----11--12--11--12--11--12--|

D|--------------------------------|--------------------------------|
A|--------------------------------|--------------------------------|
F|--------------------------------|--------------------------------|
C|--------------------------------|--------------------------------|
G|--11----11--12--11--12--11--12--|--11----11--12--11--12--11--12--|
C|--11----11--12--11--12--11--12--|--11----11--12--11--12--11--12--|


D|--------------------------------|--------------------------------|
A|--------------------------------|--------------------------------|
F|--------------------------------|--------------------------------|
C|--------------------------------|--------------------------------|
G|--11----11--12--11--12--11--12--|--11----11--12--11--12--11--12--|
C|--11----11--12--11--12--11--12--|--11----11--12--11--12--11--12--|

D|--------------------------------|-------------------------|
A|--------------------------------|-------------------------|
F|--------------------------------|-------6--7--9--7--6--7--|
C|--------------------------------|-------------------------|
G|--11----11--12--11--12--11--12--|--0----------------------|
C|--11----11--12--11--12--11--12--|--0----------------------|

D|-------------------------|-------------------------|-------------------------|
A|-------------------------|-------------------------|-------------------------|
F|--9--7--6--7--9--7--6----|-------6--7--9--7--6--7--|--9--7--6--7--9--7--6----|
C|-------------------------|-------------------------|-------------------------|
G|-------------------------|--0----------------------|-------------------------|
C|-------------------------|--0----------------------|-------------------------|

D|------------------------------|--------------------------------|
A|------------------------------|--------------------------------|
F|------------------------------|--------------------------------|
C|------------------------------|--------------------------------|
G|------------------------------|--------------------------------|
C|--11----11--12--11----11--12--|--11----11--12--11--12--11--12--|

D|------------------------------|--------------------------------|
A|------------------------------|--------------------------------|
F|------------------------------|--------------------------------|
C|------------------------------|--------------------------------|
G|------------------------------|--------------------------------|
C|--11----11--12--11----11--12--|--11----11--12--11--12--11--12--|

D|------------------------------|--------------------------------|
A|------------------------------|--------------------------------|
F|------------------------------|--------------------------------|
C|------------------------------|--------------------------------|
G|------------------------------|--------------------------------|
C|--11----11--12--11----11--12--|--11----11--12--11--12--11--12--|


D|------------------------------|--------------------------------|
A|------------------------------|--------------------------------|
F|------------------------------|--------------------------------|
C|------------------------------|--------------------------------|
G|------------------------------|--------------------------------|
C|--11----11--12--11----11--12--|--11----11--12--11--12--11--12--|

D|------------------------------|--------------------------------|
A|------------------------------|--------------------------------|
F|------------------------------|--------------------------------|
C|------------------------------|--------------------------------|
G|------------------------------|--------------------------------|
C|--11----11--12--11----11--12--|--11----11--12--11--12--11--12--|


D|------------------------------|--------------------------------|
A|------------------------------|--------------------------------|
F|------------------------------|--------------------------------|
C|------------------------------|--------------------------------|
G|------------------------------|--------------------------------|
C|--11----11--12--11----11--12--|--11----11--12--11--12--11--12--|

 Advertisement Got You On The Run

D|------------10--------|------------------|------------------------------|
A|-------8----8---------|------------------|------------------------------|
F|--8----8----8---------|------------------|------------------------------|
C|----------------------|------------------|------------------------------|
G|----------------------|------------------|--11----11--12--11----11--12--|
C|----------------------|------------------|--11----11--12--11----11--12--|


                                    Advertisement Got You On The Run

D|--------------------------------|------------10--------|------------------|
A|--------------------------------|-------8----8---------|------------------|
F|--------------------------------|--8----8----8---------|------------------|
C|--------------------------------|----------------------|------------------|
G|--11----11--12--11--12--11--12--|----------------------|------------------|
C|--11----11--12--11--12--11--12--|----------------------|------------------|

D|------------------------------|--------------------------------|
A|------------------------------|--------------------------------|
F|------------------------------|--------------------------------|
C|------------------------------|--------------------------------|
G|--11----11--12--11----11--12--|--11----11--12--11--12--11--12--|
C|--11----11--12--11----11--12--|--11----11--12--11--12--11--12--|

Advertisement Got You On The Run

D|------------10--------|
A|-------8----8---------|
F|--8----8----8---------|
C|----------------------|
G|----------------------|
C|----------------------|

Advertisement Got You On The Run

D|------------10--------|
A|-------8----8---------|
F|--8----8----8---------|
C|----------------------|
G|----------------------|
C|----------------------|

Advertisement Got You On The Run

D|------------8--------|
A|-------6----6--------|
F|--6----6----6--------|
C|---------------------|
G|---------------------|
C|---------------------|

Advertisement Got You On The Run

D|------------10--------|
A|-------8----8---------|
F|--8----8----8---------|
C|----------------------|
G|----------------------|
C|----------------------|

Advertisement Got You On The Run

D|------------8--------|
A|-------6----6--------|
F|--6----6----6--------|
C|---------------------|
G|---------------------|
C|---------------------|

Advertisement Got You On The Run

D|------------10--------|
A|-------8----8---------|
F|--8----8----8---------|
C|----------------------|
G|----------------------|
C|----------------------|


D|--------------------------------|--------------------------------|
A|--------------------------------|--------------------------------|
F|--------------------------------|--------------------------------|
C|--------------------------------|--------------------------------|
G|--11----11--12--11--12--11--12--|--11----11--12--11--12--11--12--|
C|--11----11--12--11--12--11--12--|--11----11--12--11--12--11--12--|

D|--------------------------------|--------------------------------|
A|--------------------------------|--------------------------------|
F|--------------------------------|--------------------------------|
C|--------------------------------|--------------------------------|
G|--11----11--12--11--12--11--12--|--11----11--12--11--12--11--12--|
C|--11----11--12--11--12--11--12--|--11----11--12--11--12--11--12--|

D|--------------------------------|--------------------------------|
A|--------------------------------|--------------------------------|
F|--------------------------------|--------------------------------|
C|--------------------------------|--------------------------------|
G|--11----11--12--11--12--11--12--|--11----11--12--11--12--11--12--|
C|--11----11--12--11--12--11--12--|--11----11--12--11--12--11--12--|

D|--------------------------------|--------------------------------|
A|--------------------------------|--------------------------------|
F|--------------------------------|--------------------------------|
C|--------------------------------|--------------------------------|
G|--11----11--12--11--12--11--12--|--11----11--12--11--12--11--12--|
C|--11----11--12--11--12--11--12--|--11----11--12--11--12--11--12--|

D|-------------------------|-------------------------|-------------------------|
A|-------------------------|-------------------------|-------------------------|
F|-------6--7--9--7--6--7--|--9--7--6--7--9--7--6----|-------6--7--9--7--6--7--|
C|-------------------------|-------------------------|-------------------------|
G|--0----------------------|-------------------------|--0----------------------|
C|--0----------------------|-------------------------|--0----------------------|

D|-------------------------|------------------------------|
A|-------------------------|------------------------------|
F|--9--7--6--7--9--7--6----|------------------------------|
C|-------------------------|------------------------------|
G|-------------------------|------------------------------|
C|-------------------------|--11----11--12--11----11--12--|

D|--------------------------------|------------------------------|
A|--------------------------------|------------------------------|
F|--------------------------------|------------------------------|
C|--------------------------------|------------------------------|
G|--------------------------------|------------------------------|
C|--11----11--12--11--12--11--12--|--11----11--12--11----11--12--|

D|--------------------------------|------------------------------|
A|--------------------------------|------------------------------|
F|--------------------------------|------------------------------|
C|--------------------------------|------------------------------|
G|--------------------------------|--11----11--12--11----11--12--|
C|--11----11--12--11--12--11--12--|--11----11--12--11----11--12--|

D|--------------------------------|--------------------------------|
A|--------------------------------|--------------------------------|
F|--------------------------------|--------------------------------|
C|--------------------------------|--------------------------------|
G|--11----11--12--11--12--11--12--|--11----11--12--11--12--11--12--|
C|--11----11--12--11--12--11--12--|--11----11--12--11--12--11--12--|

D|--------------------------------|--------------------------------|
A|--------------------------------|--------------------------------|
F|--------------------------------|--------------------------------|
C|--------------------------------|--------------------------------|
G|--11----11--12--11--12--11--12--|--11----11--12--11--12--11--12--|
C|--11----11--12--11--12--11--12--|--11----11--12--11--12--11--12--|

D|--------------------------------|--------------------------------|
A|--------------------------------|--------------------------------|
F|--------------------------------|--------------------------------|
C|--------------------------------|--------------------------------|
G|--11----11--12--11--12--11--12--|--11----11--12--11--12--11--12--|
C|--11----11--12--11--12--11--12--|--11----11--12--11--12--11--12--|

D|--------------------------------||
A|--------------------------------||
F|--------------------------------|| End.
C|--------------------------------||
G|--11----11--12--11--12--11--12--||
C|--11----11--12--11--12--11--12--||
Suggest correction
comments
print report bad tab
28 comments total. Showing first comments.
0 reply
Jacky 232 Dec 15, 2002 07:00 PM

This Tab Rocks Man

-1 reply
WeezerPleezer 0 Dec 20, 2002 07:00 PM

The lyrics are off. "What a splendid pie, pizza pie."

+1 reply
static-pimp 10 Dec 31, 2002 07:00 PM

don't forget pepperoni and green peppers mushrooms olives chives.

guest
You may want to rate the tab now too:
select rating
Wanna post a correction for this tab? Suggest correction