Oops, an error
Loading. Please wait.

Chic N Stu Tab

version 5
version 5

Whole song

609 views 1 this week
no commentswrite comment
1 2 3 4 5
2 more votes to show rating
add to favorites
launch autoscroll
font size
0
reset
how to read this tab
guitar tuner
backing track
0:00
0:00
×
Best way to learn
"Chic N Stu"
Autoscroll
slow
fast
+/-
esc
set tempo
stop
Author
Tuning
  follow
B F# B E G# C#
Song:Chic 'n' Stu
Artist:System of a Down
Album:Steal This Album!

Tabbed by ben3296(bptrules@hotmail.com)

Dropped B Tuning (Drop D tuning, then down 1 and a half steps)
Guitars 1 & 2 - Distortion
Guitars 3 & 4 - Clean

4/4 - Q=192

PM-palm mute
LR-let ring
fdbk.-feedback

a note inside < > is a natural harmonic



Intro
-----
GUITAR 1
C#-|9---9---9---9---|9---9---9---9---|
G#-|10--10--10--10--|10--10--10--10--|
E--|----------------|----------------|play 4
B--|----------------|----------------|times
F#-|----------------|----------------|
B--|----------------|----------------|



Verse 1
-------
GUITAR 1
C#-|----------------|----------------|----------------|----------------|
G#-|----------------|----------------|----------------|----------------|
E--|----------------|----------------|----------------|----------------|
B--|0---------------|0---------------|0---------------|----------------|
F#-|0---0-1-0-1-0-1-|0---0-1-0-1-0-1-|0---0-1-0-1-0-1-|0-1-0-1-0-1-0-1-|
B--|0---0-1-0-1-0-1-|0---0-1-0-1-0-1-|0---0-1-0-1-0-1-|0-1-0-1-0-1-0-1-|
        PM__________|    PM__________|    PM__________|PM______________|play 2
GUITAR 2            |                |                |                |times
C#-|----------------|----------------|----------------|----------------|
G#-|----------------|----------------|----------------|----------------|
E--|----------------|----------------|----------------|----------------|
B--|----------------|----------------|----------------|----------------|
F#-|0-1-0-1-0-1-0-1-|0-1-0-1-0-1-0-1-|0-1-0-1-0-1-0-1-|0-1-0-1-0-1-0-1-|
B--|0-1-0-1-0-1-0-1-|0-1-0-1-0-1-0-1-|0-1-0-1-0-1-0-1-|0-1-0-1-0-1-0-1-|
    PM______________ PM______________ PM______________ PM______________|



GUITAR 1
C#-|----------------|----------------|----------------|----------------|
G#-|----------------|----------------|----------------|----------------|
E--|----------------|----------------|----------------|----------------|
B--|----------------|----------------|----------------|----------------|
F#-|0---5-6-8-6-5-6-|8-6-5-6-8-6-5---|0---------------|----------------|
B--|0---------------|----------------|0---------------|----------------|
        PM__________|PM____________  |                |                |
GUITAR 2            |                |                |                |
C#-|----------------|----------------|----------------|----------------|
G#-|----------------|----------------|----3-4-6-4-3-4-|6-4-3-4-6-4-3---|
E--|----------------|----------------|----------------|----------------|
B--|----------------|----------------|----------------|----------------|
F#-|0---------------|----------------|0---------------|----------------|
B--|0---------------|----------------|0---------------|----------------|
                                          PM__________ PM______________



Chorus 1
--------
GUITARS 1 & 2
C#-|----------------|----------------|----------------|----------------|
G#-|----------------|----------------|----------------|----------------|
E--|----------------|----------------|----------------|----------------|
B--|----------------|----------------|----------------|----------------|
F#-|0---0-1-0---0-1-|0---0-1-0-1-0-1-|0---0-1-0---0-1-|0---0-1-0-1-0-1-|
B--|0---0-1-0---0-1-|0---0-1-0-1-0-1-|0---0-1-0---0-1-|0---0-1-0-1-0-1-|
    PM______________ PM______________ PM______________ PM______________

GUITARS 1 & 2
C#-|----------------|----------------|----------------|----------------|
G#-|----------------|----------------|----------------|----------------|
E--|----------------|----------------|----------------|----------------|
B--|----------------|----------------|----------------|----------------|
F#-|0---0-1-0---0-1-|0---0-1-0-1-0-1-|0---0-1-0---0-1-|0---0-1-0-1-0-1-|
B--|0---0-1-0---0-1-|0---0-1-0-1-0-1-|0---0-1-0---0-1-|0---0-1-0-1-0-1-|



Link
----
GUITAR 1
C#-|9---9---9---9---|9---9---9---9---|9---9---9---9---|9---9---9---9---|
G#-|10--10--10--10--|10--10--10--10--|--10--10--10--10|--10--10--10--10|
E--|----------------|----------------|----------------|----------------|
B--|----------------|----------------|----------------|----------------|
F#-|----------------|----------------|----------------|----------------|
B--|----------------|----------------|----------------|----------------|
                                      LR_______________________________


Verse 2
-------
GUITAR 1
C#-|----------------|----------------|----------------|----------------|
G#-|----------------|----------------|----------------|----------------|
E--|----------------|----------------|----------------|----------------|
B--|0---------------|0---------------|0---------------|----------------|
F#-|0---0-1-0-1-0-1-|0---0-1-0-1-0-1-|0---0-1-0-1-0-1-|0-1-0-1-0-1-0-1-|
B--|0---0-1-0-1-0-1-|0---0-1-0-1-0-1-|0---0-1-0-1-0-1-|0-1-0-1-0-1-0-1-|
        PM__________|    PM__________|    PM__________|PM______________|play 2
GUITAR 2            |                |                |                |times
C#-|----------------|----------------|----------------|----------------|
G#-|----------------|----------------|----------------|----------------|
E--|----------------|----------------|----------------|----------------|
B--|----------------|----------------|----------------|----------------|
F#-|0-1-0-1-0-1-0-1-|0-1-0-1-0-1-0-1-|0-1-0-1-0-1-0-1-|0-1-0-1-0-1-0-1-|
B--|0-1-0-1-0-1-0-1-|0-1-0-1-0-1-0-1-|0-1-0-1-0-1-0-1-|0-1-0-1-0-1-0-1-|
    PM______________ PM______________ PM______________ PM______________|



GUITAR 1
C#-|----------------|----------------|----------------|----------------|
G#-|----------------|----------------|----------------|----------------|
E--|----------------|----------------|----------------|----------------|
B--|----------------|----------------|----------------|----------------|
F#-|0---5-6-8-6-5-6-|8-6-5-6-8-6-5---|0---------------|----------------|
B--|0---------------|----------------|0---------------|----------------|
        PM__________|PM____________  |                |                |
GUITAR 2            |                |                |                |
C#-|----------------|----------------|----------------|----------------|
G#-|----------------|----------------|----3-4-6-4-3-4-|6-4-3-4-6-4-3---|
E--|----------------|----------------|----------------|----------------|
B--|----------------|----------------|----------------|----------------|
F#-|0---------------|----------------|0---------------|----------------|
B--|0---------------|----------------|0---------------|----------------|
                                          PM__________ PM______________



Chorus 2
--------
GUITARS 1 & 2
C#-|----------------|----------------|----------------|----------------|
G#-|----------------|----------------|----------------|----------------|
E--|----------------|----------------|----------------|----------------|
B--|----------------|----------------|----------------|----------------|
F#-|0---0-1-0---0-1-|0---0-1-0-1-0-1-|0---0-1-0---0-1-|0---0-1-0-1-0-1-|
B--|0---0-1-0---0-1-|0---0-1-0-1-0-1-|0---0-1-0---0-1-|0---0-1-0-1-0-1-|
    PM______________ PM______________ PM______________ PM______________

GUITARS 1 & 2
C#-|----------------|----------------|----------------|----------------|
G#-|----------------|----------------|----------------|----------------|
E--|----------------|----------------|----------------|----------------|play 2
B--|----------------|----------------|----------------|----------------|times
F#-|0---0-1-0---0-1-|0---0-1-0-1-0-1-|0---0-1-0---0-1-|0---0-1-0-1-0-1-|
B--|0---0-1-0---0-1-|0---0-1-0-1-0-1-|0---0-1-0---0-1-|0---0-1-0-1-0-1-|




Bridge
------
GUITAR 3
C#-|--------11------|----------------|
G#-|----9-----------|----------------|
E--|9---------------|----------------|
B--|----------------|----------------|
F#-|----------------|----------------|
B--|----------------|----------------|
    LR_________     |                |
GUITAR 4            |                |
C#-|----------------|----------------|
G#-|----------------|----------------|
E--|--------8-------|----------------|
B--|----6-----------|----------------|
F#-|7---------------|----------------|
B--|----------------|----------------|



GUITARS 1 & 2
C#-|----------------|----------------|
G#-|----------------|----------------|
E--|----------------|----------------|
B--|----------------|----------------|
F#-|0---0-1-0---0-1-|0---0-1-0-1-0-1-|
B--|0---0-1-0---0-1-|0---0-1-0-1-0-1-|
    PM______________ PM______________



GUITAR 3
C#-|--------11------|----------------|
G#-|----9-----------|----------------|
E--|9---------------|----------------|
B--|----------------|----------------|
F#-|----------------|----------------|
B--|----------------|----------------|
    LR_________     |                |
GUITAR 4            |                |
C#-|----------------|----------------|
G#-|----------------|----------------|
E--|--------8-------|----------------|
B--|----6-----------|----------------|
F#-|7---------------|----------------|
B--|----------------|----------------|


GUITARS 1 & 2
C#-|----------------|----------------|
G#-|----------------|----------------|
E--|----------------|----------------|
B--|----------------|----------------|
F#-|0---0-1-0---0-1-|0---0-1-0-1-0-1-|
B--|0---0-1-0---0-1-|0---0-1-0-1-0-1-|
    PM______________ PM______________




GUITAR 3
C#-|--------11------|----------------|----------------|----------------|
G#-|----9-----------|----------------|----------------|----------------|
E--|9---------------|----------------|----------------|----------------|
B--|----------------|----------------|----------------|----------------|
F#-|----------------|----------------|----------------|----------------|
B--|----------------|----------------|----------------|----------------|
    LR_________     |                |                |                |play 6
GUITAR 4            |                |                |                |times
C#-|----------------|----------------|----------------|----------------|
G#-|----------------|----------------|----------------|----------------|
E--|--------8-------|----------------|----------------|----------------|
B--|----6-----------|----------------|----------------|----------------|
F#-|7---------------|----------------|----------------|----------------|
B--|----------------|----------------|----------------|----------------|


**ON LAST REPEAT ONLY**
GUITAR 1
C#-|----------------|----------------|17--------------|----------------|
G#-|----------------|----------------|----------------|----------------|
E--|14--------------|----------------|----------------|----------------|
B--|----------------|----------------|----------------|----------------|
F#-|----------------|----------------|----------------|----------------|
B--|----------------|----------------|----------------|----------------|
    fdbk.           |                |fdbk.           |                |
GUITAR 2            |                |                |                |
C#-|----------------|----------------|6---6---9--<9>--|---<15>---------|
G#-|----------------|----------------|----------------|------------0---|
E--|----------------|----------------|----------------|------------0---|
B--|----------------|----------------|----------------|----------------|
F#-|----------------|----------------|----------------|----------------|
B--|----------------|----------------|----------------|----------------|
                                                                   fdbk.




Verse 3
-------
GUITAR 1
C#-|----------------|----------------|----------------|----------------|
G#-|----------------|----------------|----------------|----------------|
E--|----------------|----------------|----------------|----------------|
B--|0---------------|0---------------|0---------------|----------------|
F#-|0---0-1-0-1-0-1-|0---0-1-0-1-0-1-|0---0-1-0-1-0-1-|0-1-0-1-0-1-0-1-|
B--|0---0-1-0-1-0-1-|0---0-1-0-1-0-1-|0---0-1-0-1-0-1-|0-1-0-1-0-1-0-1-|
        PM__________|    PM__________|    PM__________|PM______________|play 2
GUITAR 2            |                |                |                |times
C#-|----------------|----------------|----------------|----------------|
G#-|----------------|----------------|----------------|----------------|
E--|----------------|----------------|----------------|----------------|
B--|----------------|----------------|----------------|----------------|
F#-|0-1-0-1-0-1-0-1-|0-1-0-1-0-1-0-1-|0-1-0-1-0-1-0-1-|0-1-0-1-0-1-0-1-|
B--|0-1-0-1-0-1-0-1-|0-1-0-1-0-1-0-1-|0-1-0-1-0-1-0-1-|0-1-0-1-0-1-0-1-|
    PM______________ PM______________ PM______________ PM______________|



GUITAR 1
C#-|----------------|----------------|----------------|----------------|
G#-|----------------|----------------|----------------|----------------|
E--|----------------|----------------|----------------|----------------|
B--|----------------|----------------|----------------|----------------|
F#-|0---5-6-8-6-5-6-|8-6-5-6-8-6-5---|0---------------|----------------|
B--|0---------------|----------------|0---------------|----------------|
        PM__________|PM____________  |                |                |
GUITAR 2            |                |                |                |
C#-|----------------|----------------|----------------|----------------|
G#-|----------------|----------------|----3-4-6-4-3-4-|6-4-3-4-6-4-3---|
E--|----------------|----------------|----------------|----------------|
B--|----------------|----------------|----------------|----------------|
F#-|0---------------|----------------|0---------------|----------------|
B--|0---------------|----------------|0---------------|----------------|
                                          PM__________ PM______________



Chorus 3
--------
GUITARS 1 & 2
C#-|----------------|----------------|----------------|----------------|
G#-|----------------|----------------|----------------|----------------|
E--|----------------|----------------|----------------|----------------|
B--|----------------|----------------|----------------|----------------|
F#-|0---0-1-0---0-1-|0---0-1-0-1-0-1-|0---0-1-0---0-1-|0---0-1-0-1-0-1-|
B--|0---0-1-0---0-1-|0---0-1-0-1-0-1-|0---0-1-0---0-1-|0---0-1-0-1-0-1-|
    PM______________ PM______________ PM______________ PM______________

GUITARS 1 & 2
C#-|----------------|----------------|----------------|----------------|
G#-|----------------|----------------|----------------|----------------|
E--|----------------|----------------|----------------|----------------|
B--|----------------|----------------|----------------|----------------|
F#-|0---0-1-0---0-1-|0---0-1-0-1-0-1-|0---0-1-0---0-1-|0---0-1-0-1-0-1-|
B--|0---0-1-0---0-1-|0---0-1-0-1-0-1-|0---0-1-0---0-1-|0---0-1-0-1-0-1-|




Outro
-----
GUITARS 1 & 2
C#-|----------------|----------------|----------------|----------------|--|
G#-|----------------|----------------|----------------|----------------|--|
E--|----------------|----------------|----------------|----------------|--|
B--|----------------|----------------|----------------|----------------|--|
F#-|0---0-1-0---0-1-|0---0-1-0-1-0-1-|0---0-1-0---0-1-|0---0-1-0-1-0-1-|0-|
B--|0---0-1-0---0-1-|0---0-1-0-1-0-1-|0---0-1-0---0-1-|0---0-1-0-1-0-1-|0-|
    PM______________ PM______________ PM______________ PM



Hope this helps 
Please rate and comment
Apologies for any mistakes - please correct me
Thanks :)
Suggest correction
Give kudos to tab author, rate the tab!
1 2 3 4 5
comments
print report bad tab
guest
You may want to rate the tab now too:
select rating
Wanna post a correction for this tab? Suggest correction