Oops, an error
Loading. Please wait.
We have an official Chop Suey tab made by UG professional guitarists. Check out the tab »
×
70,112 views 189 this week
4 commentsread comments
1 2 3 4 5
x 23
add to favorites
×
Save as Personal and add changes to this tab that will be seen only by you. Learn more ›
×
You can save this tab as Personal to edit and correct it or add notes. All changes will be seen only by you. Learn more »
save as personal
new!
launch autoscroll
font size
0
reset
how to read this tab
guitar tuner
backing track
0:00
0:00
Autoscroll
slow
fast
+/-
esc
set tempo
stop
Author
Difficulty
novice
Chop suey 

This is in standard, it sounds about the same and very good for not having to tune down 
to drop c or drop d enjoy!


Intro!  The times hit is off but you all know the song so just listen for the right 
rythem and times played. 


[Intro]
e-|--------------------------------------|
B-|--------------------------------------|
G-|--------------------------------------|
D-|--8--8--8-8--10-10-10-10--------------|
A-|-10-10-10-10--12-12-12-12-------------|
E-|--------------------------------------|

e-|--------------------------------------|
B-|--------------------------------------|
G-|--------------------------------------|
D-|-7-7-7-7-7-7-5-5-5-5-5-5--------------|
A-|-8-8-8-8-8-8-6-6-6-6-6-6--------------|
E-|--------------------------------------|

PIntro part 2
Not correct number of times just the simple pattern  
(Palm muted) PLUCK EACH NOTE INDIVIDUALLY!!!
e-|--------------------------------------|
B-|--------------------------------------|
G-|--------------------------------------|
D-|------8--------8----------8-----------|
A-|-10------10-------10---------10-------|
E-|--------------------------------------|
 
e-|--------------------------------------|
B-|--------------------------------------|
G-|--------------------------------------|
D-|------10------10------10------10------|
A-|-12------12------12------12-----------|
E-|--------------------------------------|

e-|--------------------------------------|
B-|--------------------------------------|
G-|--------------------------------------|
D-|---7-------7------7-------7-----------|
A-|8------8------8------8----------------|
E-|--------------------------------------|

e-|--------------------------------------|
B-|--------------------------------------|
G-|--------------------------------------|
D-|-----5-----5------5-------5-----------|
A-|-6-----6------6------6------6---------|
E-|--------------------------------------|
While this part is happening in the song there is a second guitar on the recorded one 
that plays intro part 1 throughout intro one and 2  but for just one guitar this works 
just as well 

Now Go back to intro part one 
Then into 
Heavy riff,  
e-|--------------------------------------|
B-|--------------------------------------|
G-|--------------------------------------|
D-|--------------------------------------|
A-|-5-5-5-5-5-5-5-4-4-4-4-4-4------------|
E-|-3-3-3-3-3-3-3-2-2-2-2-2-2------------|

e-|--------------------------------------|
B-|--------------------------------------|
G-|--------------------------------------|
D-|--------------5-5-5-5-5-5-------------|
A-|7-7-7-7-7-7-7-3-3-3-3-3-3-------------|
E-|5-5-5-5-5-5-5-------------------------|

Not the right amount of times played but just listen to it. 
Play it as many times as needed 
Then go into this little part 
e-|--------------------------------------|
B-|--------------------------------------|
G-|--------------------------------------|
D-|--------------------------------------|
A-|--------------------------------------|
E-|-3-3-3-3-2-2-2-2-5-5-5-5-8-8-8-8------|

Then [verse]
e-|--------------------------------------|
B-|--------------------------------------|
G-|--------------------------------------|
D-|--------------------------------------|
A-|-5-5-5-5-5-5-(-)-4-4-4-4-4-4----------|
E-|-3-3-3-3-3-3-(-)-2-2-2-2-2-2----------|

e-|--------------------------------------|
B-|--------------------------------------|
G-|--------------------------------------|
D-|--------------------------------------|
A-|-4-4-4-4-4-4-(-)-5-5-5-5-5-5----------|
E-|-2-2-2-2-2-2--(-)-3-3-3-3-3-3---------|
Wake up! Make up! Ect..  

After the chorus for a measure u just kinda go crazy with the verse progression for a 
sec,  scream then go into 7 verses  listen to song if your confused about that 

Instead of just pausing you can just rake muted notes sounds 
Its also cool if you switch it up by sliding up to 12 between As well 
 
Reapeat  it as many times for you to fullfill your needs 


[Chorus!]
"I don't think you trust. Ect" 
Reapeat how ever manytimes
The picking patter it actually does is different this is just an example just play 
around with it to figure out how to get it right  
e-|--------------------------------------|
B-|---------------------8----------------|
G-|------------------------8-------------|
D-|-----5------------8-------------------|
A-|--5---5------6------------------------|
E-|-3-------3----------------------------|

e-|--------------------------------------|
B-|--------3---------------8-------------|
G-|----------3---------------8-----------|
D-|----3-------3------8---------8--------|
A-|-1--------------6---------------------|
E-|--------------------------------------|
Then back into intro part 3 into verse and so on! 

And that's all of chop suey!
Please remeber this is in standard so it 
may not match perfectly but I still 
have a great time playing along and it works with bands too! And I never saw any 
others in standard.


Intro x4 
Intro 2 x2
Intro 1 x2
Heavy riff x4
Verse x7 
Chorus x2 
Heavy riff x2 
Crazy verse x1
Verse x7  
Chorus x4 
"when angels deserve to die" * pause* 
Heavy riff x2 
*over heavy riff* 
"father! Father! Father father, father into your hands I condem my spirit father 
in my hands" 

Chorus plays over

"why have u forsaken me in your thoughts forsaken me ect"

Then go into a regular chorus x4 

And you are done!  



************************************

/ slide up
\ slide down 
() pause

************************************
Suggest correction
comments
print report bad tab
4 comments total. Showing first comments.
0 reply
Iblis92 101 Apr 24, 2012 11:33 PM

what do the (-) mean in this?

A-|-5-5-5-5-5-5-(-)-4-4-4-4-4-4----------|
E-|-3-3-3-3-3-3-(-)-2-2-2-2-2-2----------|

0 reply
frogboy791 10 Apr 30, 2013 03:52 PM

it means pause

0 reply
soumyaranjan 31 Jul 20, 2013 11:14 PM

Hey ya ! nice tab man !! sounds good in an electric too

guest
You may want to rate the tab now too:
select rating
Wanna post a correction for this tab? Suggest correction