Oops, an error
Loading. Please wait.
60,647 views 6 this week
11 commentsread comments
1 2 3 4 5
x 18
add to favorites
launch autoscroll
font size
0
reset
how to read this tab
guitar tuner
backing track
0:00
0:00
×
Best way to learn
"Chop Suey"
Autoscroll
slow
fast
+/-
esc
set tempo
stop
Author
Difficulty
Tuning
  follow
intermediate
C G C F A D
                               CHOP SUEY!

This is an awesome song! I play it in drop C but I think you can play it
in drop Db if you want.If you have any questions/corrections, PM me, I'll
try to get back to you.BTW first tab *Gulp*.Enjoy!


    Intro (acoustic guitar)
D---||------------------------------------------------------------------|
A---||------------------------------------------------------------------|
F---||*--5--5--5--5--5--5--5--5--5--5--5--5--5--5--5--5--7--7--7--7-----|
C---||*--7--7--7--7--7--7--7--7--7--7--7--7--7--7--7--7--9--9--9--9-----|
G---||---0--0--0--0--0--0--0--0--0--0--0--0--0--0--0--0--0--0--0--0-----|
C---||------------------------------------------------------------------|

D-----------------------------------------------------------------------|
A-----------------------------------------------------------------------|
F---7--7--7--7--7--7--7--7--7--7--7--7--4--4--4--4--4--4--4--4--4--4----|
C---9--9--9--9--9--9--9--9--9--9--9--9--5--5--5--5--5--5--5--5--5--5----|
G---0--0--0--0--0--0--0--0--0--0--0--0--0--0--0--0--0--0--0--0--0--0----|
C-----------------------------------------------------------------------|

D-----------------------------------------------------------------------|
A-----------------------------------------------------------------------|
F---4--4--4--4--4--4--2--2--2--2--2--2--2--2--2--2--2--2--2--2--2-------|
C---5--5--5--5--5--5--3--3--3--3--3--3--3--3--3--3--3--3--3--3--3-------|
G---0--0--0--0--0--0--0--0--0--0--0--0--0--0--0--0--0--0--0--0--0-------|
C-----------------------------------------------------------------------|


     3x                Distorted Electric Guitar
D----||--------||-------------------------------------------------------|
A----||--------||-------------------------------------------------------|
F---*||--------||*-----5-----5-----5-----7-----7-----7-----4-----4------|
C---*||--------||*--------7-----7-----7-----9-----9-----9-----5---------|
G----||--------||-------------------------------------------------------|
C----||--------||-------------------------------------------------------|


                                4x
D-------------------------------||--------------------------------------|
A-------------------------------||--------------------------------------|
F------4-----2-----2-----2-----*||--------------------------------------|
C---5-----5-----3-----3-----3--*||--------------------------------------|
G-------------------------------||--------------------------------------|
C-------------------------------||--------------------------------------|


       Electric Guitar 2
D------||-----6--6--6--6--6--6--6--6--6--6--6--6--6--6--6--6--8--8------|
A------||---------------------------------------------------------------|
F------||---------------------------------------------------------------|
C------||---------------------------------------------------------------|
G------||---------------------------------------------------------------|
C------||---------------------------------------------------------------|

D---8--8--8--8--8--8--8--8--8--8--8--8--8--8--5--5--5--5--5--5--5--5----|
A-----------------------------------------------------------------------|
F-----------------------------------------------------------------------|
C-----------------------------------------------------------------------|
G-----------------------------------------------------------------------|
C-----------------------------------------------------------------------|

D---5--5--5--5--5--5--5--5--11--11--11--11--11--11--11--11--11--11------|
A-----------------------------------------------------------------------|
F-----------------------------------------------------------------------|
C-----------------------------------------------------------------------|
G-----------------------------------------------------------------------|
C-----------------------------------------------------------------------|

D---11--11--11--11--11--11--11--11--11--11--11--11--11--11--11--11------|
A-----------------------------------------------------------------------|
F-----------------------------------------------------------------------|
C-----------------------------------------------------------------------|
G-----------------------------------------------------------------------|
C-----------------------------------------------------------------------|

D---11--11--11--11--11--11--13--13--13--13--13--13--13--13--13--13------|
A-----------------------------------------------------------------------|
F-----------------------------------------------------------------------|
C-----------------------------------------------------------------------|
G-----------------------------------------------------------------------|
C-----------------------------------------------------------------------|

D---13--13--13--13--13--13--8--8--8--8--8--8--8--8--8--8--8--8--8--8----|
A-----------------------------------------------------------------------|
F-----------------------------------------------------------------------|
C-----------------------------------------------------------------------|
G-----------------------------------------------------------------------|
C-----------------------------------------------------------------------|

D---8--8--13--13--13--13--13--13--13--13--13--13--13--13--13--13--13----|
A-----------------------------------------------------------------------|
F-----------------------------------------------------------------------|
C-----------------------------------------------------------------------|
G-----------------------------------------------------------------------|
C-----------------------------------------------------------------------|


                           Pre-Verse
D---13--||-----------------||-------------------------------------------|
A-------||-----------------||-------------------------------------------|
F-------||-----------------||*------------------------------------------|
C-------||-----------------||*-----7--7--7--7--7--7--7--7--6--6--6------|
G-------||-----------------||------7--7--7--7--7--7--7--7--6--6--6------|
C-------||-----------------||------7--7--7--7--7--7--7--7--6--6--6------|

D-----------------------------------------------------------------------|
A-----------------------------------------------------------------------|
F-----------------------------------------------------------------------|
C---6--6--6--6--6--9--9--9--9--9--9--9--9--12--11--12--11--12--11-------|
G---6--6--6--6--6--9--9--9--9--9--9--9--9--12--11--12--11--12--11-------|
C---6--6--6--6--6--9--9--9--9--9--9--9--9--12--11--12--11--12--11-------|


             2x
D------------||--||-----------------------------------------------------|
A------------||--||-----------------------------------------------------|
F-----------*||--||*----------------------------------------------------|
C---12--11--*||--||*----------------------------------------------------|
G---12--11---||--||-----------------------------------------------------|
C---12--11---||--||---7--7--7--7--7--7--7--7--6--6--6--6--6--6--6--6----|


                                                             2x
D------------------------------------------------------------||---------|
A------------------------------------------------------------||---------|
F-----------------------------------------------------------*||---------|
C-----------------------------------------------------------*||---------|
G------------------------------------------------------------||---------|
C---9--9--9--9--9--9--9--9--12--12--12--12--12--12--12--12---||---------|


    Verse
D---||---------------------------------------|--------------------------|
A---||---------------------------------------|--------------------------|
F---||*--------------------------------------|--------------------------|
C---||*--6--6--6--6--6--6--6--6--6--6--6--5--|--5--5--5--5--5--5--5-----|
G---||---6--6--6--6--6--6--6--6--6--6--6--5--|--5--5--5--5--5--5--5-----|
C---||---6--6--6--6--6--6--6--6--6--6--6--5--|--5--5--5--5--5--5--5-----|


              4x                       Chorus Electric Guitar 1
D-------------||--------------------------||-----6--6--6--6--6--6--6----|
A-------------||--------------------------||----------------------------|
F------------*||--------------------------||----------------------------|
C---5--5--6--*||--6--6--6--6--------------||----------------------------|
G---5--5--6---||--6--6--6--6--------------||----------------------------|
C---5--5--6---||--6--6--6--6--------------||----------------------------|

D---6--6--6--6--6--6--6--6--6--8--8--8--8--8--8--8--8--8--8--8--8--8----|
A-----------------------------------------------------------------------|
F-----------------------------------------------------------------------|
C-----------------------------------------------------------------------|
G-----------------------------------------------------------------------|
C-----------------------------------------------------------------------|

D---8--8--8--5--5--5--5--5--5--5--5--5--5--5--5--5--5--5--5--11--11-----|
A-----------------------------------------------------------------------|
F-----------------------------------------------------------------------|
C-----------------------------------------------------------------------|
G-----------------------------------------------------------------------|
C-----------------------------------------------------------------------|

D---11--11--11--11--11--11--11--11--11--11--11--11--11--11--11--11------|
A-----------------------------------------------------------------------|
F-----------------------------------------------------------------------|
C-----------------------------------------------------------------------|
G-----------------------------------------------------------------------|
C-----------------------------------------------------------------------|

D---11--11--11--11--11--11--11--11--11--11--11--11--11--11--13--13------|
A-----------------------------------------------------------------------|
F-----------------------------------------------------------------------|
C-----------------------------------------------------------------------|
G-----------------------------------------------------------------------|
C-----------------------------------------------------------------------|

D---13--13--13--13--13--13--13--13--13--13--13--13--13--13--8--8--8-----|
A-----------------------------------------------------------------------|
F-----------------------------------------------------------------------|
C-----------------------------------------------------------------------|
G-----------------------------------------------------------------------|
C-----------------------------------------------------------------------|

D---8--8--8--8--8--8--8--8--8--8--8--8--8--13--13--13--13--13--13-------|
A-----------------------------------------------------------------------|
F-----------------------------------------------------------------------|
C-----------------------------------------------------------------------|
G-----------------------------------------------------------------------|
C-----------------------------------------------------------------------|

D---13--13--13--13--13--13--13--13--13--13--||--------------------------|
A-------------------------------------------||--------------------------|
F-------------------------------------------||--------------------------|
C-------------------------------------------||--------------------------|
G-------------------------------------------||--------------------------|
C-------------------------------------------||--------------------------|


    Electric Guitar 2
D------||---------------------------------------------------------------|
A------||---------------------------------------------------------------|
F------||*--5--5-----------7--7-----------4--4-----------2--2-----------|
C------||*--------7-----7--------9-----9--------5-----5--------3--------|
G------||------------7--------------9--------------5--------------3-----|
C------||---------------------------------------------------------------|


        2x
D-------||--------------------------------------------------------------|
A-------||--------------------------------------------------------------|
F------*||--------------------------------------------------------------|
C---3--*||--------------------------------------------------------------|
G-------||--------------------------------------------------------------|
C-------||--------------------------------------------------------------|


                Pre-Verse
D---------------||------------------------------------------------------|
A---------------||------------------------------------------------------|
F---------------||*-----------------------------------------------------|
C---------------||*-----7--7--7--7--7--7--7--7--6--6--6--6--6--6--6-----|
G---------------||------7--7--7--7--7--7--7--7--6--6--6--6--6--6--6-----|
C---------------||------7--7--7--7--7--7--7--7--6--6--6--6--6--6--6-----|


                                                                2x
D---------------------------------------------------------------||------|
A---------------------------------------------------------------||------|
F--------------------------------------------------------------*||------|
C---6--9--9--9--9--9--9--9--9--12--11--12--11--12--11--12--11--*||------|
G---6--9--9--9--9--9--9--9--9--12--11--12--11--12--11--12--11---||------|
C---6--9--9--9--9--9--9--9--9--12--11--12--11--12--11--12--11---||------|

D---||------------------------------------------------------------------|
A---||------------------------------------------------------------------|
F---||*-----------------------------------------------------------------|
C---||*-----------------------------------------------------------------|
G---||------------------------------------------------------------------|
C---||---7--7--7--7--7--7--7--7--6--6--6--6--6--6--6--6--9--9--9--9-----|


                                                 2x  Verse
D------------------------------------------------||--||-----------------|
A------------------------------------------------||--||-----------------|
F-----------------------------------------------*||--||*----------------|
C-----------------------------------------------*||--||*--6--6--6--6----|
G------------------------------------------------||--||---6--6--6--6----|
C---9--9--9--9--12--12--12--12--12--12--12--12---||--||---6--6--6--6----|


                                                              4x
D---------------------------|---------------------------------||--------|
A---------------------------|---------------------------------||--------|
F---------------------------|--------------------------------*||--------|
C---6--6--6--6--6--6--6--5--|--5--5--5--5--5--5--5--5--5--6--*||--6-----|
G---6--6--6--6--6--6--6--5--|--5--5--5--5--5--5--5--5--5--6---||--6-----|
C---6--6--6--6--6--6--6--5--|--5--5--5--5--5--5--5--5--5--6---||--6-----|


                         Chorus Electric Guitar 1
D---------------------------||------6--6--6--6--6--6--6--6--6--6--6-----|
A---------------------------||------------------------------------------|
F---------------------------||*-----------------------------------------|
C---6--6--6-----------------||*-----------------------------------------|
G---6--6--6-----------------||------------------------------------------|
C---6--6--6-----------------||------------------------------------------|

D---6--6--6--6--6--8--8--8--8--8--8--8--8--8--8--8--8--8--8--8--8--5----|
A-----------------------------------------------------------------------|
F-----------------------------------------------------------------------|
C-----------------------------------------------------------------------|
G-----------------------------------------------------------------------|
C-----------------------------------------------------------------------|

D---5--5--5--5--5--5--5--5--5--5--5--5--5--5--5--11--11--11--11--11-----|
A-----------------------------------------------------------------------|
F-----------------------------------------------------------------------|
C-----------------------------------------------------------------------|
G-----------------------------------------------------------------------|
C-----------------------------------------------------------------------|

D---11--11--11--11--11--11--11--11--11--11--11--11--11--11--11--11------|
A-----------------------------------------------------------------------|
F-----------------------------------------------------------------------|
C-----------------------------------------------------------------------|
G-----------------------------------------------------------------------|
C-----------------------------------------------------------------------|

D---11--11--11--11--11--11--11--11--11--11--11--13--13--13--13--13------|
A-----------------------------------------------------------------------|
F-----------------------------------------------------------------------|
C-----------------------------------------------------------------------|
G-----------------------------------------------------------------------|
C-----------------------------------------------------------------------|

D---13--13--13--13--13--13--13--13--13--13--13--8--8--8--8--8--8--8-----|
A-----------------------------------------------------------------------|
F-----------------------------------------------------------------------|
C-----------------------------------------------------------------------|
G-----------------------------------------------------------------------|
C-----------------------------------------------------------------------|

D---8--8--8--8--8--8--8--8--8--13--13--13--13--13--13--13--13--13-------|
A-----------------------------------------------------------------------|
F-----------------------------------------------------------------------|
C-----------------------------------------------------------------------|
G-----------------------------------------------------------------------|
C-----------------------------------------------------------------------|


                                 2x           Electric Guitar 2
D---13--13--13--13--13--13--13---||--------------||---------------------|
A--------------------------------||--------------||---------------------|
F-------------------------------*||--------------||*--5--5--------------|
C-------------------------------*||--------------||*--------7-----7-----|
G--------------------------------||--------------||------------7--------|
C--------------------------------||--------------||---------------------|


                                                  4x
D-------------------------------------------------||--------------------|
A-------------------------------------------------||--------------------|
F---7--7-----------4--4-----------2--2-----------*||--------------------|
C---------9-----9--------5-----5--------3-----3--*||--------------------|
G------------9--------------5--------------3------||--------------------|
C-------------------------------------------------||--------------------|


                                                          Outro
D---------------------------------------------------------||---|--------|
A---------------------------------------------------------||---|--------|
F---------------------------------------------------------||*--|--------|
C---------------------------------------------------------||*--|--------|
G---------------------------------------------------------||---|--------|
C---------------------------------------------------------||---|--------|


    PM on 3rd & 4th Repeats of this measure
D-----------------------------------------------------------------------|
A-----------------------------------------------------------------------|
F-----------------------------------------------------------------------|
C---7--7--7--7--7--7--7--7--6--6--6--6--6--6--6--6--9--9--9--9--9--9----|
G---7--7--7--7--7--7--7--7--6--6--6--6--6--6--6--6--9--9--9--9--9--9----|
C---7--7--7--7--7--7--7--7--6--6--6--6--6--6--6--6--9--9--9--9--9--9----|


                                              4x
D-----------------------------------------|---||--||--------------------|
A-----------------------------------------|---||--||--------------------|
F-----------------------------------------|--*||--||*-------------------|
C---9--9--12--11--12--11--12--11--12--11--|--*||--||*-------------------|
G---9--9--12--11--12--11--12--11--12--11--|---||--||--------------------|
C---9--9--12--11--12--11--12--11--12--11--|---||--||---7--7--7--7--7----|

D-----------------------------------------------------------------------|
A-----------------------------------------------------------------------|
F-----------------------------------------------------------------------|
C-----------------------------------------------------------------------|
G-----------------------------------------------------------------------|
C---7--7--7--6--6--6--6--6--6--6--6--9--9--9--9--9--9--9--9--12--12-----|


                             2x                    2x
D----------------------------||--||----------------||--||---------------|
A----------------------------||--||----------------||--||---------------|
F---------------------------*||--||*--------------*||--||*--------------|
C---------------------------*||--||*--5--1--8--1--*||--||*--5--5--5-----|
G----------------------------||--||---5--1--8--1---||--||---5--5--5-----|
C---12--12--12--12--12--12---||--||---5--1--8--1---||--||---5--5--5-----|


                                            4x
D-------------------------------------------||--------------------------|
A-------------------------------------------||--------------------------|
F------------------------------------------*||--------------------------|
C---5--1--1--1--1--8--8--8--8--1--1--1--1--*||--1--1--1--1--1--0--------|
G---5--1--1--1--1--8--8--8--8--1--1--1--1---||--1--1--1--1--1--0--------|
C---5--1--1--1--1--8--8--8--8--1--1--1--1---||--1--1--1--1--1--0--------|


========================================================================
==                       TABLATURE EXPLANATION                        ==
========================================================================

----------                ----------                ----t---|
----5h8--- Hammeron       ----(8)--- Ghost          ----6---| Tap
----------                ---------- Note           --------|
----5p8--- Pulloff        ----------                --------|

----------                ----------                -----p--|
----5/8--- Slide Up       -----x---- Dead           -----7--| Pop
----------                ---------- Note           --s-----|
----5\8--- Slide Down     ----------                --5-----| Slap

----------                ||------|| Repeat         --------|
----5~~~-- Vibrato        ||*----*||                ---5^---| Bend
----------                ||*----*||                --------|
----------                ||------||                --------|

----------                ----------                --------|
-4:------- Time           ----------                --------|
-4:------- Signature      ----------                --------|
----------                ----------                --------|

========================================================================
==                    Tabbed by Minutes2Mayhem                        ==
==                       PM with Questions                            ==
========================================================================
Suggest correction
comments
print report bad tab
11 comments total. Showing first comments.
0 reply
geetarguy1313 10 Nov 08, 2008 02:50 PM

i like it. easiest chop suey tab, and first tab all around that i finished all the way!2 thumbs-up

0 reply
geetarguy1313 10 Nov 08, 2008 03:56 PM

btw, wa ghost note?:'(

0 reply
Minutes2Mayhem 41 Dec 01, 2008 02:04 PM

I dont think there is a ghost note It is probably just part of the explanation in the program I used. btw Thanks, it took awhile to make but if it helps one person it's worth it!

guest
You may want to rate the tab now too:
select rating
Wanna post a correction for this tab? Suggest correction