Oops, an error
Loading. Please wait.
We have an official Chop Suey tab made by UG professional guitarists. Check out the tab »
×
169,829 views 201 this week
5 commentsread comments
1 2 3 4 5
x 115
add to favorites
×
Save as Personal and add changes to this tab that will be seen only by you. Learn more ›
×
You can save this tab as Personal to edit and correct it or add notes. All changes will be seen only by you. Learn more »
launch autoscroll
font size
0
reset
how to read this tab
guitar tuner
backing track
0:00
0:00
edit
Autoscroll
slow
fast
+/-
esc
set tempo
stop
-----------------------------------------------------------------------------
                         Chop Suey! - System of a Down
-----------------------------------------------------------------------------
GUITAR 1 (C G C F A D) - Distorted
GUITAR 2 (C G C F A D) - Distorted
GUITAR 3 (C G C F A D) - Distorted
GUITAR 4 (C G C F A D) - Distorted


[Intro]

 GUITAR 1
D|-------------------------------------------------------------------------|
A|-------------------------------------------------------------------------|
F|-5--55-55-55-55-55--7-77-77-77-77-77--4-44-44-44-44-44--2-22-22-22-22-22-|
C|-7--77-77-77-77-77--9-99-99-99-99-99--5-55-55-55-55-55--3-33-33-33-33-33-| x4
G|-0--00-00-00-00-00--0-00-00-00-00-00--0-00-00-00-00-00--0-00-00-00-00-00-|
C|-------------------------------------------------------------------------|

 GUITAR 2
D|-------------------------------------------------|
A|-------------------------------------------------|
F|-5---5---5---7---7---7---4---4---4---2---2---2---|
C|---7---7---7---9---9---9---5---5---5---3---3---3-| x3
G|-------------------------------------------------|
C|-------------------------------------------------|
 PM. . . . . . . . . . . . . . . . . . . . . . . .

 GUITAR 3
D|--8---8--8---8--8---8--8---8--8---8--8--10--10-10--10-10--10-10--10-10--10-10-|
A|-10--10-10--10-10--10-10--10-10--10-10--12--12-12--12-12--12-12--12-12--12-12-|
F|------------------------------------------------------------------------------|
C|------------------------------------------------------------------------------|
G|------------------------------------------------------------------------------|
C|------------------------------------------------------------------------------|

D|-7--7-7--7-7--7-7--7-7--7-7--12--12-12--12-12--12-12--12-12--12-12-|
A|-8--8-8--8-8--8-8--8-8--8-8--13--13-13--13-13--13-13--13-13--13-13-|
F|-------------------------------------------------------------------|
C|-------------------------------------------------------------------|
G|-------------------------------------------------------------------|
C|-------------------------------------------------------------------|

D|-12--12-12--12-12--12-12--12-12--12-12--13--13-13--13-13--13-13--13-13--13-13-|
A|-13--13-13--13-13--13-13--13-13--13-13--15--15-15--15-15--15-15--15-15--15-15-|
F|------------------------------------------------------------------------------|
C|------------------------------------------------------------------------------|
G|------------------------------------------------------------------------------|
C|------------------------------------------------------------------------------|

D|-10-10-10--10-10--10-10--10-10--10-10--13-13-13-13-13-13-13-13-|
A|-12-12-12--12-12--12-12--12-12--12-12--15-15-15-15-15-15-15-15-|
F|---------------------------------------------------------------|
C|---------------------------------------------------------------|
G|---------------------------------------------------------------|
C|---------------------------------------------------------------|


[Main Riff]

 GUITAR 1
D|---------------------------------|
A|---------------------------------|
F|---------------------------------|
C|-8-7-8-7-8-7-8-7-7-6-7-6-7-6-7-6-|
G|-8-7-8-7-8-7-8-7-7-6-7-6-7-6-7-6-|
C|-8-7-8-7-8-7-8-7-7-6-7-6-7-6-7-6-|

D|---------------------------------------------|
A|---------------------------------------------|
F|---------------------------------------------|
C|-10-9-10-9-10-9-10-9-12-10-12-10-12-10-12-10-|
G|-10-9-10-9-10-9-10-9-12-10-12-10-12-10-12-10-|
C|-10-9-10-9-10-9-10-9-12-10-12-10-12-10-12-10-|

D|-------------------------------------------------------------------------|
A|-------------------------------------------------------------------------|
F|-------------------------------------------------------------------------|
C|-------------------------------------------------------------------------| x2
G|-------------------------------------------------------------------------|
C|-7-7-7-7-7-7-7-7-6-6-6-6-6-6-6-6-9-9-9-9-9-9-9-9-12-12-12-12-12-12-12-12-|


[Verse 1]

 GUITAR 1
D|----------------------------------------------------------------|
A|----------------------------------------------------------------|
F|----------------------------------------------------------------|
C|-8--7----8--7--8--7--8--7--8--7--7--6----7--6--7--6--7--6--7--6-|
G|-8--7----8--7--8--7--8--7--8--7--7--6----7--6--7--6--7--6--7--6-|
C|-8--7----8--7--8--7--8--7--8--7--7--6----7--6--7--6--7--6--7--6-|
 Wake up  Grababrushandputalittle Makeup  Hidethescarstofadeawaythe
 Shakeup  Whydyouleavethekeysuponthetable hereyougocreateanother
  Fable   grababrushandputalittle Makeup  Hidethescarstofadeawaythe
 Shakeup  whydyouleavethekeysuponthetable   I dont think you 

 
[Chorus]

 GUITAR 1/3 - REPEAT INTRO

D|--8---8--8---8--8---8--8---8--8---8--8--10--10-10--10-10--10-10--10-10--10-10-|
A|-10--10-10--10-10--10-10--10-10--10-10--12--12-12--12-12--12-12--12-12--12-12-|
F|------------------------------------------------------------------------------|
C|------------------------------------------------------------------------------|
G|------------------------------------------------------------------------------|
C|------------------------------------------------------------------------------|

D|-7--7-7--7-7--7-7--7-7--7-7--12--12-12--12-12--12-12--12-12--12-12-|
A|-8--8-8--8-8--8-8--8-8--8-8--13--13-13--13-13--13-13--13-13--13-13-|
F|-------------------------------------------------------------------|
C|-------------------------------------------------------------------|
G|-------------------------------------------------------------------|
C|-------------------------------------------------------------------|

 GUITAR 2
D|----------------------------------------|
A|----------------------------------------|
F|-----5----------7--------4---------2----|
C|----7-7-7------9-9--7---5-5-5-----3-3-3-| x2
G|---7---7-----10---10---5---5-----3---3--|
C|----------------------------------------|
 PM  ......    . .... .  ......    ......
 Trust      in        my       selfrightous
 Suicide     I        cry       when angels deserve to

D|---------------------------------|
A|---------------------------------|
F|---------------------------------|
C|-8-7-8-7-8-7-8-7-7-6-7-6-7-6-7-6-|
G|-8-7-8-7-8-7-8-7-7-6-7-6-7-6-7-6-|
C|-8-7-8-7-8-7-8-7-7-6-7-6-7-6-7-6-|
  DIE!

D|---------------------------------------------|
A|---------------------------------------------|
F|---------------------------------------------|
C|-10-9-10-9-10-9-10-9-12-10-12-10-12-10-12-10-|
G|-10-9-10-9-10-9-10-9-12-10-12-10-12-10-12-10-|
C|-10-9-10-9-10-9-10-9-12-10-12-10-12-10-12-10-|


[Verse 1]

 GUITAR 1
D|----------------------------------------------------------------|
A|----------------------------------------------------------------|
F|----------------------------------------------------------------|
C|-8--7----8--7--8--7--8--7--8--7--7--6----7--6--7--6--7--6--7--6-|
G|-8--7----8--7--8--7--8--7--8--7--7--6----7--6--7--6--7--6--7--6-|
C|-8--7----8--7--8--7--8--7--8--7--7--6----7--6--7--6--7--6--7--6-|
 Wake up  Grababrushandputalittle Makeup  Hidethescarstofadeawaythe
 Shakeup  Whydyouleavethekeysuponthetable hereyougocreateanother
  Fable   grababrushandputalittle Makeup  Hidethescarstofadeawaythe
 Shakeup  whydyouleavethekeysuponthetable   I dont think you 

 
[Pre-Bridge]

GUITAR 1/3 REPEAT INTRO

D|--8---8--8---8--8---8--8---8--8---8--8--10--10-10--10-10--10-10--10-10--10-10-|
A|-10--10-10--10-10--10-10--10-10--10-10--12--12-12--12-12--12-12--12-12--12-12-|
F|------------------------------------------------------------------------------|
C|------------------------------------------------------------------------------|
G|------------------------------------------------------------------------------|
C|------------------------------------------------------------------------------|

D|-7--7-7--7-7--7-7--7-7--7-7--12--12-12--12-12--12-12--12-12--12-12-|
A|-8--8-8--8-8--8-8--8-8--8-8--13--13-13--13-13--13-13--13-13--13-13-|
F|-------------------------------------------------------------------|
C|-------------------------------------------------------------------|
G|-------------------------------------------------------------------|
C|-------------------------------------------------------------------|

GUITAR 2
D|----------------------------------------|
A|----------------------------------------|
F|-----5----------7--------4---------2----|
C|----7-7-7------9-9--7---5-5-5-----3-3-3-| x2
G|---7---7-----10---10---5---5-----3---3--|
C|----------------------------------------|
 PM  ......    . .... .  ......    ......
 Trust      in        my       selfrightous
 Suicide     I        cry       when angels deserve to

D|---------------------------------|
A|---------------------------------|
F|---------------------------------|
C|-8-7-8-7-8-7-8-7-7-6-7-6-7-6-7-6-|
G|-8-7-8-7-8-7-8-7-7-6-7-6-7-6-7-6-|
C|-8-7-8-7-8-7-8-7-7-6-7-6-7-6-7-6-|
  DIE!

D|---------------------------------------------|
A|---------------------------------------------|
F|---------------------------------------------|
C|-10-9-10-9-10-9-10-9-12-10-12-10-12-10-12-10-|
G|-10-9-10-9-10-9-10-9-12-10-12-10-12-10-12-10-|
C|-10-9-10-9-10-9-10-9-12-10-12-10-12-10-12-10-|

 GUITAR 1
D|---------------------------------|
A|---------------------------------|
F|---------------------------------|
C|-8-7-8-7-8-7-8-7-7-6-7-6-7-6-7-6-|
G|-8-7-8-7-8-7-8-7-7-6-7-6-7-6-7-6-|
C|-8-7-8-7-8-7-8-7-7-6-7-6-7-6-7-6-|

D|---------------------------------------------|
A|---------------------------------------------|
F|---------------------------------------------|
C|-10-9-10-9-10-9-10-9-12-10-12-10-12-10-12-10-| x2
G|-10-9-10-9-10-9-10-9-12-10-12-10-12-10-12-10-|
C|-10-9-10-9-10-9-10-9-12-10-12-10-12-10-12-10-|

D|---------------------------------|
A|---------------------------------|
F|---------------------------------|
C|-8-7-8-7-8-7-8-7-7-6-7-6-7-6-7-6-|
G|-8-7-8-7-8-7-8-7-7-6-7-6-7-6-7-6-|
C|-8-7-8-7-8-7-8-7-7-6-7-6-7-6-7-6-|
 PM. . . . . . . . . . . . . . . .
  Father!          (Father!)

D|---------------------------------------------|
A|---------------------------------------------|
F|---------------------------------------------|
C|-10-9-10-9-10-9-10-9-12-10-12-10-12-10-12-10-|
G|-10-9-10-9-10-9-10-9-12-10-12-10-12-10-12-10-|
C|-10-9-10-9-10-9-10-9-12-10-12-10-12-10-12-10-|
 PM.  . .  . .  . .  . .  .  .  .  .  .  .  .
  Father!             (Father!)

D|---------------------------------|
A|---------------------------------|
F|---------------------------------|
C|-8-7-8-7-8-7-8-7-7-6-7-6-7-6-7-6-|
G|-8-7-8-7-8-7-8-7-7-6-7-6-7-6-7-6-|
C|-8-7-8-7-8-7-8-7-7-6-7-6-7-6-7-6-|
 PM. . . . . . . . . . . . . . . .
  Father!          (Father!)

D|---------------------------------------------|
A|---------------------------------------------|
F|---------------------------------------------|
C|-10-9-10-9-10-9-10-9-12-10-12-10-12-10-12-10-|
G|-10-9-10-9-10-9-10-9-12-10-12-10-12-10-12-10-|
C|-10-9-10-9-10-9-10-9-12-10-12-10-12-10-12-10-|
 PM.  . .  . .  . .  . .  .  .  .  .  .  .  .
  Father!

D|-------------------------------------------------------------------------|
A|-------------------------------------------------------------------------|
F|-------------------------------------------------------------------------|
C|-------------------------------------------------------------------------| x2
G|-------------------------------------------------------------------------|
C|-7-7-7-7-7-7-7-7-6-6-6-6-6-6-6-6-9-9-9-9-9-9-9-9-12-12-12-12-12-12-12-12-|
  Father intoyourhands I   commendmy spirit
  Father intoyourhands    why haveyouforsaken

  
[Bridge]

 GUITAR 1/3 - REPEAT INTRO

D|--8---8--8---8--8---8--8---8--8---8--8--10--10-10--10-10--10-10--10-10--10-10-|
A|-10--10-10--10-10--10-10--10-10--10-10--12--12-12--12-12--12-12--12-12--12-12-|
F|------------------------------------------------------------------------------|
C|------------------------------------------------------------------------------|
G|------------------------------------------------------------------------------|
C|------------------------------------------------------------------------------|

D|-7--7-7--7-7--7-7--7-7--7-7--12--12-12--12-12--12-12--12-12--12-12-|
A|-8--8-8--8-8--8-8--8-8--8-8--13--13-13--13-13--13-13--13-13--13-13-|
F|-------------------------------------------------------------------|
C|-------------------------------------------------------------------|
G|-------------------------------------------------------------------|
C|-------------------------------------------------------------------|

 GUITAR 2 - REPEAT CHORUS
D|----------------------------------------|
A|----------------------------------------|
F|-----5----------7--------4---------2----|
C|----7-7-7------9-9--7---5-5-5-----3-3-3-| x2
G|---7---7-----10---10---5---5-----3---3--|
C|----------------------------------------|
 PM  ......    . .... .  ......    ......
   me       inyoureyesforsakenme inyourthoughts
  forsaken me inyour heart forsaken me, oh

 GUITAR 4
D|-----------------------------------|
A|-----------------------------------|
F|---2-------------------5-----------|
C|---2---------3---------5---------3-| x4
G|---0---------3---------3---------3-|
C|-------------3-------------------3-|
  Trust       in        my       selfrightous
  Suicide      I        cry      whenangelsdeserve
  to die      in        my       selfrightuos
  Suicide      I        cry      when angels deserve to die

            
            
Suggest correction
Creating personal tab
Creating personal tab
You can edit any tab online and save it as your Personal.

You can edit, replace or remove any tab part or add personal notes – all changes will be seen only by you.

Personal tabs can be accessed anytime from any device, even offline.
Learn more »
comments
print report bad tab
5 comments total. Showing first comments.
+1 reply
Scouty 10 Dec 31, 2013 03:44 PM

This is really good, man! 5 stars, well done!

+1 reply
SOAD1122 14 Mar 30, 2014 05:00 PM

Thanks! Awesome tab!

0 reply
3Mb-Ry 10 Mar 11, 2015 10:14 AM

the chorus second chord is wrong, the 10th fret note clash...

guest
Wanna post a correction for this tab? Suggest correction