Oops, an error
Loading. Please wait.
We have an official Cigaro tab made by UG professional guitarists. Check out the tab »
×
4,892 views 3 this week
2 commentsread comments
1 2 3 4 5
x 6
add to favorites
×
Save as Personal and add changes to this tab that will be seen only by you. Learn more ›
×
You can save this tab as Personal to edit and correct it or add notes. All changes will be seen only by you. Learn more »
launch autoscroll
font size
0
reset
guitar tuner
backing track
0:00
0:00
edit
Autoscroll
slow
fast
+/-
esc
set tempo
stop
-------------------------------------------------------------------------------
			     SONG NAME - Band Name
-------------------------------------------------------------------------------

Tabbed By : Dylan the bassist. Or am I?
e-mail: gamecuber6@hotmail.com
Tuning: FCGC

The Cigaro bass tab is dead wrong. This isnt perfect, but its pretty damn close

Intro and Chorus (Cool, in Denial)

F|--------------------------------------------------------------------------|
C|--------------------------------------------------------------------------|
G|--------------------------7-6-4-6-4-2-4-2---------------------------------|
C|-002-002-002-002-002-002--------------------------------------------------|

Verse (My cock is much bigger than yours!)
F|--------------------------------------------------------------------------|
C|--------------------------------------------------------------------------|
G|-------------------99-8-6-5-2-1-------------------------------------------|
C|-00~----------------------------------------------------------------------|
   ^^                    ^^
 My Cock is much     My cock can walk
 bigger part         through the door part

Cant you see that I love my cock part
F|--------------------------------------------------------------------------|
C|--------------------------------------------------------------------------|
G|-1-1-1-1---8--6--1--0-----------------------------------------------------|
C|1-1-1-1-------------------------------------------------------------------|

Regulators that Deregulate part
F|--------------------------------------------------------------------------|
C|--------------------------------------------------------------------------|
G|-9-11-8-9-6-8-5-----------------------------------------------------------|
C|--------------------------------------------------------------------------|

I think thats about all of it, thats about all you need to play the song well anyway, 
you want added then e-mail or comment or sommit, I dunno, whatever. look, a goose!

*runs away


| /  slide up
| \  slide down
| h  hammer-on
| p  pull-off
| ~  vibrato
| +  harmonic
| x  Mute note
===============================================================================
Suggest correction
Creating personal tab
Creating personal tab
You can edit any tab online and save it as your Personal.

You can edit, replace or remove any tab part or add personal notes – all changes will be seen only by you.

Personal tabs can be accessed anytime from any device, even offline.
Learn more »
comments
print report bad tab
2 comments total.
0 reply
livinginmisery 80 Apr 02, 2007 09:50 AM

seems right, at least more right than the other dildo......lmao. 5 stars

+1 reply
livinginmisery 80 Apr 02, 2007 09:53 AM

wait......there is something wrong though.....its in drop Db

guest
Wanna post a correction for this tab? Suggest correction