Oops, an error
Loading. Please wait.
We have an official Dreaming tab made by UG professional guitarists. Check out the tab »
×
28,044 views 24 this week
17 commentsread comments
1 2 3 4 5
x 25
add to favorites
×
Save as Personal and add changes to this tab that will be seen only by you. Learn more ›
×
You can save this tab as Personal to edit and correct it or add notes. All changes will be seen only by you. Learn more »
launch autoscroll
font size
0
reset
how to read this tab
guitar tuner
edit
Autoscroll
slow
fast
+/-
esc
set tempo
stop
-------------------------------------------------------------------------------
                           Dreaming - System of a Down
-------------------------------------------------------------------------------
Tabbed by:Ryan Kozicki
Email:rydeen@gmail.com

Tuning: C G C F A D
===============================================================================

| /  slide up
| \  slide down
| h  hammer-on
| p  pull-off
| ~  vibrato
| +  harmonic
| x  Mute note
===============================================================================
Intro

|-------------------------------------|
|-------------------------------------|
|-------------------------------------| X 11
|-14-0-0-0-13-0-0-0-12-0-0-0-11-0-0-0-|
|-------------------------------------|
|-------------------------------------|

|---------------------------------|
|---------------------------------|
|---------------------------------|
|---------------------------------|
|---------------------------------|
|-8-8-8-8-/12--8-8-8-8-/12--------|


Verse

|--------------------------------------|
|--------------------------------------|
|--------------------------------------|
|-14-0-0-0-13-0-0-0-12-0-0-0-11-0-0-0--| X 7
|-14-0-0-0-13-0-0-0-12-0-0-0-11-0-0-0--|
|-14-0-0-0-13-0-0-0-12-0-0-0-11-0-0-0--|

|---------------------------------|
|---------------------------------|
|---------------------------------|
|---------------------------------|
|---------------------------------|
|-8-8-8-8-/12--8-8-8-8-/12--------|

|---------------------|
|---------------------|
|---------------------|
|-14-0-13-0-12-0-11-0-| X 7 Palmed
|-14-0-13-0-12-0-11-0-|
|-14-0-13-0-12-0-11-0-|

|---------------------------------|
|---------------------------------|
|---------------------------------|
|---------------------------------|
|---------------------------------|
|-8-8-8-8-/12---/12-/12-/12-------|

Chorus

|---------------------------------|
|---------------------------------|
|-----------------8----8----------|
|-0----0--5----5--8----8--4--5-7--|
|-0----0--5----5--6----6--4--5-7--|
|-0----0--5----5----------4--5-7--|

|-----------------------------------|
|-----------------------------------|
|-----------------8----8--11-12-14--|
|-0----0--5----5--8----8--11-12-14--|
|-0----0--5----5--6----6--9--10-12--|
|-0----0--5----5--------------------|

Verse

|--------------------------------------|
|--------------------------------------|
|--------------------------------------|
|-14-0-0-0-13-0-0-0-12-0-0-0-11-0-0-0--| X 7
|-14-0-0-0-13-0-0-0-12-0-0-0-11-0-0-0--|
|-14-0-0-0-13-0-0-0-12-0-0-0-11-0-0-0--|

|---------------------------------|
|---------------------------------|
|---------------------------------|
|---------------------------------|
|---------------------------------|
|-8-8-8-8-/12--8-8-8-8-/12--------|

|---------------------|
|---------------------|
|---------------------|
|-14-0-13-0-12-0-11-0-| X 7 Palmed
|-14-0-13-0-12-0-11-0-|
|-14-0-13-0-12-0-11-0-|

|---------------------------------|
|---------------------------------|
|---------------------------------|
|---------------------------------|
|---------------------------------|
|-8-8-8-8-/12---/12-/12-/12-------|

Chorus

|---------------------------------|
|---------------------------------|
|-----------------8----8----------|
|-0----0--5----5--8----8--4--5-7--|
|-0----0--5----5--6----6--4--5-7--|
|-0----0--5----5----------4--5-7--|

|-----------------------------------|
|-----------------------------------|
|-----------------8----8--11-12-14--|
|-0----0--5----5--8----8--11-12-14--|
|-0----0--5----5--6----6--9--10-12--|
|-0----0--5----5--------------------|

Bridge

|-----------------------------------------|
|-----------------------------------------|
|-----------------------------------------|
|-5--7-7-7-7-7-7-5---1--3-3-3-3-3-3-1-----|
|-5--5-5-5-5-5-5-5---1--1-1-1-1-1-1-1-----|
|-5--5-5-5-5-5-5-5---1--1-1-1-1-1-1-1-----|

-----------------------------------------|
-----------------------------------------|
--------------------7--7--7-7-7-7-7------|
-3--5-5-5-5-5-5-3------------------------|
-3--3-3-3-3-3-3-3---5--5--5-5-5-5-5------|
-3--3-3-3-3-3-3-3------------------------|

Solo

|--------------------------------------------------------------------------|
|----------13-15-16-18----16-16-16p-15-13----------------------------------|
|-12-14-15-14-15-17-19----17-17-17p-15-14-15-14----19-19-19-19-19-19-19-19-|X2
|-----------------------------------------17-15----------------------------|
|--------------------------------------------------17-17-17-17-17-17-17-17-|
|--------------------------------------------------------------------------|

|-17-17-17-17-17-17-17-17--15-15-15-15-15-15-15-15-|
|-15-15-15-15-15-15-15-15--15-15-15-15-15-15-15-15-|
|--------------------------------------------------|X 3
|--------------------------------------------------|
|--------------------------------------------------|
|--------------------------------------------------|

-15-15-15-15-15-15-15-15--14-14-14-14-14-14-14-14-|
-15-15-15-15-15-15-15-15--15-15-15-15-15-15-15-15-|
--------------------------------------------------|
--------------------------------------------------|
--------------------------------------------------|
--------------------------------------------------|

|-17-17-17-17-17-17-17-17--15-15-15-15-15-15-15-15-|
|-15-15-15-15-15-15-15-15--15-15-15-15-15-15-15-15-|
|--------------------------------------------------|X 3
|--------------------------------------------------|
|--------------------------------------------------|
|--------------------------------------------------|


-15-15-15-15-15-15-15-15--14-|
-15-15-15-15-15-15-15-15--15-|
-----------------------------|
-----------------------------|
-----------------------------|
-----------------------------|

Verse

|--------------------------------------|
|--------------------------------------|
|--------------------------------------|
|-14-0-0-0-13-0-0-0-12-0-0-0-11-0-0-0--| X 7
|-14-0-0-0-13-0-0-0-12-0-0-0-11-0-0-0--|
|-14-0-0-0-13-0-0-0-12-0-0-0-11-0-0-0--|

|---------------------------------|
|---------------------------------|
|---------------------------------|
|---------------------------------|
|---------------------------------|
|-8-8-8-8-/12--8-8-8-8-/12--------|

|---------------------|
|---------------------|
|---------------------|
|-14-0-13-0-12-0-11-0-| X 7 Palmed
|-14-0-13-0-12-0-11-0-|
|-14-0-13-0-12-0-11-0-|

|---------------------------------|
|---------------------------------|
|---------------------------------|
|---------------------------------|
|---------------------------------|
|-8-8-8-8-/12---/12-/12-/12-------|

Chorus

|---------------------------------|
|---------------------------------|
|-----------------8----8----------|
|-0----0--5----5--8----8--4--5-7--|
|-0----0--5----5--6----6--4--5-7--|
|-0----0--5----5----------4--5-7--|

|-----------------------------------|
|-----------------------------------|
|-----------------8----8--11-12-14--|
|-0----0--5----5--8----8--11-12-14--|
|-0----0--5----5--6----6---9-10-12--|
|-0----0--5----5--------------------|


Outro Verse (play it X 3)

|------------------------------------------------------------------|
|------------------------------------------------------------------|
|------------------------------------------------------------------|
|------------------------------------------------------------------|
|------------------------------------------------------------------|
|-0-0-0-0-0-0-0-0-0-0-0-0-0-0-0-0--5-5-5-5-5-5-5-5-5-5-5-5-5-5-5-5-|


|-----------------------------------------------------------|
|-----------------------------------------------------------|
|-----------------------------------------------------------|
|----------------------------------11-11-11-11-11-11--12-12-|
|-6-6-6-6-6-6-6-6-6-6-6-6-6-6-6-6---9--9--9--9--9--9--10-10-|
|-----------------------------------------------------------|

-------------------------|
-------------------------|
-------------------------|
-14-14-14-14-14-14-14-14-|
-12-12-12-12-12-12-12-12-|
-------------------------|

Outro

|---------------------|
|---------------------|
|---------------------|
|-14-0-13-0-12-0-11-0-| X 7 Pamlmed
|-14-0-13-0-12-0-11-0-|
|-14-0-13-0-12-0-11-0-|

|---------------------------------|
|---------------------------------|
|---------------------------------|
|---------------------------0-----|
|---------------------------0-----|
|-8-8-8-8-/12---/12-/12-/12-0-----|

The end

            
            
Suggest correction
Creating personal tab
Creating personal tab
You can edit any tab online and save it as your Personal.

You can edit, replace or remove any tab part or add personal notes – all changes will be seen only by you.

Personal tabs can be accessed anytime from any device, even offline.
Learn more »
comments
print report bad tab
17 comments total. Showing first comments.
0 reply
Hugh .G.Rection 10 Nov 16, 2005 03:26 PM

Sounds good, nice tab.

0 reply
r18 92 Nov 17, 2005 04:28 AM

thanks. Just want to clear this up... 7 for the bridge is played on A and G and not E and D

5

0 reply
shotgunjoe 234 Nov 19, 2005 02:24 AM

This is exactly the same as my tab with a few changes, and I get 3 stars and he gets 5!

guest
You may want to rate the tab now too:
select rating
Wanna post a correction for this tab? Suggest correction