Oops, an error
Loading. Please wait.

Ego Brain Tab

version 1
version 1

Intro

Whole song

Interactive

17,230 views 9 this week
4 commentsread comments
1 2 3 4 5
x 9
add to favorites
launch autoscroll
font size
0
reset
how to read this tab
guitar tuner
×
Best way to learn
"Ego Brain"
Autoscroll
slow
fast
+/-
esc
set tempo
stop
Author
    ___________________
   /System Of A Down  /  Initially, I was trying to arrange this for standard
  /Ego Brain         /  tuning, until I realized that you need the Drop-C for
 /Steal This Album! /  the low chorus. This leaves us here with the intro-riff.
/__________________/  

tuning: Standard tuning (E A D G B e)
tempo:  Q.=80 bpm
time:   6/8
key:    D minor



INTRO/VERSE:

  Guitar-1
||-------0h1p0h1p0---|------------|------0h1p0h1p0---|------------|
||o----3-----------3-|------------|----3-----------3-|------------|
||---2---------------|----2-----2-|--2---------------|----2-----2-|
||-0-----------------|--0-----0---|0-----------------|--0-----0---|
||o------------------|------------|------------------|------------|
||-------------------|3-----3-----|------------------|3-----3-----|
 |
 |Guitar-2
||-------1-----------|------------|------1-----------|------------|
||o----3------3------|------------|----3------3------|------------|
||---2-------------2-|----2-----2-|--2-------------2-|----2-----2-|
||-0-----------------|--0-----0---|0-----------------|--0-----0---|
||o------------------|------------|------------------|------------|
||-------------------|3-----3-----|------------------|3-----3-----|


  |------0h1p0h1p0---|------------|----1-----1-|-------------||
  |----3-----------3-|------------|--1-----1---|------------o||
  |--2---------------|------2-----|------------|----------0--||
  |0-----------------|----5---5---|3-----3-----|----3---0----||
  |------------------|--3-------3-|------------|--3---------o||
  |------------------|3-----------|------------|1-----3------||
  |
  |------1-----------|------------|------------|-------------||
  |----3------3------|------------|----6-----6-|------------o||
  |--2-------------2-|------2-----|--5-----5---|-------------||
  |0-----------------|----5---5---|3-----3-----|----3-----5--||
  |------------------|--3-------3-|------------|--3-----5---o||
  |------------------|3-----------|------------|1-----3------||



------------------------------------------------------------------------------



 " Maitinin writing here - the author of this tab.

   The past 11 years, I have generated 10,318,000 views and 815 top-rated tabs for this site.
   If you want to support an eager contributor like me, check out my own site:


   _____  http://www.PlayLikeTheGreats.com  _____


   Here I will continue to upload and improve my transcriptions.

   Best regards,
   Maitinin

   July, 2015 "
Suggest correction
comments
print report bad tab
4 comments total. Showing first comments.
-1 reply
Adam Musial 255 Apr 06, 2006 06:15 PM

nice try but tuning c-g-c-f-a-d

+1 reply
reaper846 10 Sep 09, 2007 04:39 PM

are you ****ing retarded? he said he was making an attempt to tab it in STANDARD but could not complete it due to the chorus being too low

+2 reply
jebbe9696 20 Sep 08, 2009 08:04 AM

dont know if it sounds good yet but THANKS for makin it in standard tuning, hate to mess up my tuning and love soad

guest
You may want to rate the tab now too:
select rating
Wanna post a correction for this tab? Suggest correction