Oops, an error
Loading. Please wait.

Fuck The System Bass

version 1
version 1

Whole song

Interactive

6,564 views 3 this week
4 commentsread comments
1 2 3 4 5
x 5
add to favorites
launch autoscroll
font size
0
reset
guitar tuner
backing track
0:00
0:00
×
Best way to learn
"Fuck The System"
Autoscroll
slow
fast
+/-
esc
set tempo
stop
Author
Difficulty
Fuck The System-SOAD
Album: Toxicity
Time:  2:15 

=]
[====================[Fuck The System]====================]

Guitar Intro
|----------------------|
|----[Guitar-Intro]----|
|----------------------|
|----------------------|

Intro 0:06[Main Riff=8x in this part]      [MAIN-RIFF]
|-------------------------------------|    [---------]
|-------------------------------------|    [---------]
|-------------------------------------|    [---------]
|-0-2-3-0--0-2-3-0--0-2-3-0--0-2-3-0--|X2] [-0-2-3-0-]

0:11 [Main Riff=8x in this part, 16x in entire Intro]
|-----------------------------------|
|-----------------------------------|
|-----------------------------------|
|-0-2-3-0-0-2-3-0-0-2-3-0-0-2-3-0---|X2]

Pre-Verse 0:16
|-------------------------|
|-------------------------|
|-------------------------|
|-0.-0.-0.-0.-0.-0.-0.-0.-|

Verse 0:20[The [1010] is |-10-10-|]__[Verse Riff=16x in this part]
|-------------------------------|   [-[VERSE-RIFF]-]
|-------------------------------|   [--------------]
|-------------------------------|   [--------------]
|-[1010]-8-1010-8-1010-8-1010-8-|X8 [----1010-8----]
(weird vocals)

0:31 
|-----------------------------|
|-----------------------------|
|-----------------------------|
|-1010-8-1010-8-1010-8-1010-8-|X8
(still weird...)

Chorus 0:41
|-----------------------------|
|-----------------------------|
|-----------------------------|
|-0-2-3-0-1-1-0-2-3-0-0-2-3-0-|X7]
"WAR! Fuck the system. WAR..."

|--------------------------------------------------------------|
|--------------------------------------------------------------|
|--------------------------------------------------------------|
|-0-2-3-0-1-1-0-2-3-0-0-2-3-0-0-2-3-0-0-2-3-0-0-2-3-0-0-2-3-0--|

Verse 0:56
|-------------------------|
|-------------------------|
|-------------------------|
|-0.-0.-0.-0.-0.-0.-0.-0.-|

Verse 1:00
|------------------------------|   
|------------------------------|   
|------------------------------|  
|--1010-8-1010-8-1010-8-1010-8-|X8



|-----------------------------|
|-----------------------------|
|-----------------------------|
|-1010-8-1010-8-1010-8-1010-8-|X8


Chorus 1:22
|-----------------------------|
|-----------------------------|
|-----------------------------|
|-0-2-3-0-1-1-0-2-3-0-0-2-3-0-|X3]
"WAR! Fuck the system. WAR..."

|--------------------------------------------------------------|
|--------------------------------------------------------------|
|--------------------------------------------------------------|
|-0-2-3-0-1-1-0-2-3-0-0-2-3-0-0-2-3-0-0-2-3-0-0-2-3-0-0-2-3-0--|

1:37
|-----------------|
|--GUITAR-THINGY--|
|-----------------|
|-----------------|

Bridge 1:40
|-------------------------------------|
|-------------------------------------|
|-------------------------------------|
|-1-1-1-0.-2-2-2-0.-1-1-1-0.-2-2-2-0.-|X4]


Verse/Outro 2:00
|------------------------------|   
|------------------------------|   
|------------------------------|  
|--1010-8-1010-8-1010-8-1010-8-|X8

Outro
|----------------------------------|
|----------------------------------|
|----------------------------------|
|-0-2-3-0-0-2-3-0-0-2-3-0-0-2-3-0.-|
"I need to fuck the..."

=]
Suggest correction
comments
print report bad tab
4 comments total. Showing first comments.
0 reply
bassplaya53 3,071 Jan 23, 2008 01:52 PM

thanks man, i was waiting for a good version of this!

0 reply
robotfrom94 314 Dec 31, 2012 05:40 AM

what tuning is this?

guest
You may want to rate the tab now too:
select rating
Wanna post a correction for this tab? Suggest correction