Oops, an error
Loading. Please wait.

Goodbye Blue Sky tab

version 1
version 1

Whole song

  • Because I was asked to do these tabs and to make it easy to learn.

Interactive

21,395 views 6 this week
11 commentsread comments
1 2 3 4 5
x 25
add to favorites
×
Save as Personal and add changes to this tab that will be seen only by you. Learn more ›
×
You can save this tab as Personal to edit and correct it or add notes. All changes will be seen only by you. Learn more »
launch autoscroll
font size
0
reset
how to read this tab
guitar tuner
edit
Autoscroll
slow
fast
+/-
esc
set tempo
stop
Author
Band:System Of A Down
Song:Goodbye Blue Sky
Tabber:Glenn
Tuning:CGCFAD

-------------------------------|---------------------------------
-------------------------------|---------------------------------
-------0--------------0--------|-----0-------0-------0-------0---
---4------4---4---4------4-----|---4---4---4---4---4---4---4---4-
-5---5------5---5---5------5-0-|-2-------2-------2-------2-------
-------------------------------|---------------------------------

---------------------------------|---------------------------------
---------------------------------|---------------------------------
-----0-------0-------0-------0---|-----0-------0-------0-------0---
---4---4---4---4---4---4---4-----|---4---4---4---4---4---4---4-----
-5-------5-------5-------5-----0-|-2-------2-------2-------2-----0-
---------------------------------|---------------------------------

---------------------------------|---------------------------------
---------------------------------|---------------------------------
---5---5-5-----4-4---------------|---5---5-5-----4-4-----4---5---6-
-----2-----2-------2---2---2---2-|-----2-----2-------2---------0---
-0-----------0-------0---0---0---|-0-----------0-------0---0-------
---------------------------------|---------------------------------

            
            
Suggest correction
Creating personal tab
Creating personal tab
You can edit any tab online and save it as your Personal.

You can edit, replace or remove any tab part or add personal notes – all changes will be seen only by you.

Personal tabs can be accessed anytime from any device, even offline.
Learn more »
comments
print report bad tab
11 comments total. Showing first comments.
0 reply
dOwnstOnE 191 Nov 11, 2002 07:00 PM

Hey, just wanted 2 tell ya great job man,
I love the little tidbits of music after the song, like this.
U know that song they do right after Prison song? That umm, singing solo from Daron that goes into know? I tabbed the Prison song and that other weird song, so i hope it shows up.

--------------------------
--------------------------
--------------------------
--------------------------
--------------------------
0--7-6---0--7-6-5-3-------
* * * * * * * *
Thats the one after "War?" that goes into Sugar after Serj does those funky sounds.
Thanx again man, Nice Job. :)
* * * * * * * *

0 reply
dOwnstOnE 191 Nov 11, 2002 07:00 PM

Hey, just wanted 2 tell ya great job man,
I love the little tidbits of music after the song, like this.
U know that song they do right after Prison song? That umm, singing solo from Daron that goes into "know"? I tabbed the Prison song and that other weird song, so i hope it shows up.

--------------------------
--------------------------
--------------------------
--------------------------
--------------------------
0--7-6---0--7-6-5-3----
* * * * * * * *
Thats the one after "War?" that goes into Sugar after Serj does those funky sounds.
Thanx again man, Nice Job. :)
* * * * * * * *

0 reply
bebrs 10 Jan 20, 2006 09:25 PM

5 godam nopelniits!

guest
You may want to rate the tab now too:
select rating
Wanna post a correction for this tab? Suggest correction