Oops, an error
Loading. Please wait.
We have an official Holy Mountains tab made by UG professional guitarists. Check out the tab »
×
15,321 views 9 this week
5 commentsread comments
1 2 3 4 5
x 11
add to favorites
×
Save as Personal and add changes to this tab that will be seen only by you. Learn more ›
×
You can save this tab as Personal to edit and correct it or add notes. All changes will be seen only by you. Learn more »
launch autoscroll
font size
0
reset
guitar tuner
backing track
0:00
0:00
edit
Autoscroll
slow
fast
+/-
esc
set tempo
stop
System Of A Down-Holy Mountains Bass Tab

Tuning:Drop D(4D-3A-2D-4G)                    ++ORDER++
                                                Intro
Total Time: 5:28                              Pre-Verse
                                                Verse
                                              Pre-Chorus
                                                Chorus
                                              Post-Chorus 
                                                Verse
                                              Pre-Chorus
                                                Chorus
                                                Bridge
                                                Outro
|===============================[Intro]====================================|

0:00
1|---------------------------------------------------------------|
2|---------------------------------------------------------------|
3|---------------------------------------------------------------|
4|-0--0--8-7--7--12--12-8-7-5--5--2--2--8-7--7--2--2--3-2-0--0---|

0:13
1|-----------------------------------------------------|
2|-----------------------------------------------------|
3|-----------------------------------------------------|
4|-0--0--8-7--7--12--12-8-7-5--5--2--2--8-7--7--2--3-2-|
 "Aaah, Ah, Ah.."

0:25
1|-------------------------------------------------------------------------|
2|-------------------------------------------------------------------------|
3|-------------------------------------------------------------------------|
4|-0-0-00-8-7-7-777-12-12-1212-8-7-5-5-5-55-2-2-22-8-7-7-7-77-2-2-22-3-2-0-|
(Vocals cut off @ 0:25)

((4|-12\\\\\-|Optional Slide))

0:36
1|------------------------------------------------------------------------|
2|------------------------------------------------------------------------|
3|------------------------------------------------------------------------|
4|-0-0-00-8-7-7-777-12-12-1212-8-7-5-5-5-55-2-2-22-8-7-7-7-77-2-2-22-3-2--|
 "Aaah, Ah, Ah..."

|========================[Pre-Verse]========================|
0:49
1|------------|
2|------------|
3|------------|
4|-0~~~--0~~~-|
      "Mmmhmm"

|============================[Verse]============================|

0:55
|--------------------------|
|--------------------------|
|--------------------------|
|-0~~~2~~~3~~5~~7-9-10-12--|X2]
 "Can, you, feel, their..."

|========================[Pre-Chorus]========================|

1:21
|------------------------------| 
|------------------------------| 
|------------------------------| 
|-1-1.-1-1.-1-1.-1-1-0-3-1-0-0-|
 "LIAR-KILLER-DEMON-Back to the River..."

1:28
|-------------------------------------------------------------|
|-------------------------------------------------------------|
|-------------------------------------------------------------|
|-5555-7777-9999-10101010-12121212-14141414-15151515-17171717-|
 "Someones cast unneeded warfare..." 

|====================[Chorus]====================|

1:41
|----------------------|    |-------------|
|----------------------|    |-------------|
|----------------------|    |-------------|
|-8~8~7-5-3-5-0~0~0~0~-|X3] |-8~8~7-5-3-5-|
 "Freedom, Freedom..."

|================[Post-Chorus]================|
2:03
1|---------------------------------------------|
2|---------------------------------------------|
3|---------------------------------------------|
4|-0--0--8-7--7--12-12-8-7-5-5-2-2-8-7-7-2-3-2-|

|====================[Verse]====================|
2:15
|--------------------------|
|--------------------------|
|--------------------------|
|-0~~~2~~~3~~5~~7-9-10-12--|
 "Can, you, hear, the Holy..."

|================[Pre-Chorus]================|

2:27
|------------------------------| 
|------------------------------| 
|------------------------------| 
|-1-1.-1-1.-1-1.-1-1-0-3-1-0-0-|
 "LIAR-KILLER-DEMON-Back to the River..."

2:33
|-------------------------------------------------------------|
|-------------------------------------------------------------|
|-------------------------------------------------------------|
|-5555-7777-9999-10101010-12121212-14141414-15151515-17171717-|
 "Someones cast unneeded warfare..." 

2:40
|------------------------------| 
|------------------------------| 
|------------------------------| 
|-1-1.-1-1.-1-1.-1-1-0-3-1-0-0-|
 "LIAR-KILLER-DEMON-Back to the River..."

|================[Chorus]================|

2:45
|----------------------|    |-------------|
|----------------------|    |-------------|
|----------------------|    |-------------|
|-8~8~7-5-3-5-0~0~0~0~-|X3] |-8~8~7-5-3-5-|

|========================[Bridge]========================|

3:09
|-------------------------|  |---------------------------------|
|-------------------------|  |---------------------------------|
|-------------------------|  |---------------------------------|
|-0--2--3--5--0--2--3--5--|  |-0-2-3-5-0-2-3-5-0-2-3-5-0-2-3-5-|
 [Gradually Pick up Tempo]

3:21
|----------------------------------|
|----------------------------------|
|----------------------------------|
|-02350235023502350235023502350235-|=[-0-2-3-5-]

|============================[Outro]============================|

1|-------------------------------------------------------------------------|
2|-------------------------------------------------------------------------|
3|-------------------------------------------------------------------------|
4|-0-0-00-8-7-7-777-12-12-1212-8-7-5-5-5-55-2-2-22-8-7-7-7-77-2-2-22-3-2-0-|


1|---------------------------------------------------------------|
2|---------------------------------------------------------------|
3|---------------------------------------------------------------|
4|-0-0-00-8-7-7-777-12-12-1212-8-7-5-5-5-55-2-2-22-8-7-7-7-77-2--|X2]

4:00
|------------------------------| 
|------------------------------| 
|------------------------------| 
|-1-1.-1-1.-1-1.-1-1-0-3-1-0-0-|
 "HONOR-MURDER-SODOMIZER-..."

1|---------------------------------------------------------------|
2|---------------------------------------------------------------|
3|---------------------------------------------------------------|
4|-0-0-00-8-7-7-777-12-12-1212-8-7-5-5-5-55-2-2-22-8-7-7-7-77-2--|

4:17
|------------------------------| 
|------------------------------| 
|------------------------------| 
|-1-1.-1-1.-1-1.-1-1-0-3-1-0-0-|
 "HONOR-MURDER-SODOMIZER-..."

|----------------------|    |-------------|
|----------------------|    |-------------|
|----------------------|    |-------------|
|-8~8~7-5-3-5-0~0~0~0~-|X3] |-8~8~7-5-3-5-|

1|---------------------------------------------------------------|
2|---------------------------------------------------------------|
3|---------------------------------------------------------------|
4|-0-0-00-8-7-7-777-12-12-1212-8-7-5-5-5-55-2-2-22-8-7-7-7-77-2--|

and there ya go.


            
            
Suggest correction
Creating personal tab
Creating personal tab
You can edit any tab online and save it as your Personal.

You can edit, replace or remove any tab part or add personal notes – all changes will be seen only by you.

Personal tabs can be accessed anytime from any device, even offline.
Learn more »
comments
print report bad tab
5 comments total. Showing first comments.
+2 reply
spdmot 10 Apr 07, 2008 09:25 AM

Got a little mistake there
should be like this:
1|---------------------------------------------------------------|
2|---------------------------------------------------------------|
3|---------------------------------------------------------------|
4|-0--0--8-7--7--12--12-8-7-5--5--3--3--8-7--7--2--2--3-2-0--0---|

+1 reply
vansdude1313 10 Jun 12, 2008 07:18 AM

it's actually not
|--------------------------|
|--------------------------|
|--------------------------|
|-0~~~2~~~3~~5~~7-9-10-12--|

is actually

|--------------------------|
|--------------------------|
|--------------------------|
|-0~~~2~~~3~~5~~7-[b]8-10-12--|

it's basically the same, just change the 9 to an 8

+2 reply
wicked_hobbit 20 Jun 15, 2008 11:49 PM

I don't think it's in drop D. It actually sounds a half step lower. I'd say it's Drop Db

guest
You may want to rate the tab now too:
select rating
Wanna post a correction for this tab? Suggest correction