Oops, an error
Loading. Please wait.

Holy Mountains Tab

version 1
version 1

Whole song

Interactive

46,157 views 81 this week
5 commentsread comments
1 2 3 4 5
x 29
add to favorites
launch autoscroll
font size
0
reset
how to read this tab
guitar tuner
Autoscroll
slow
fast
+/-
esc
set tempo
stop
Help us to improve Ultimate-Guitar.com Take our survey!
×
Author
Difficulty
Tuning
intermediate
C# G# C# F# A# D#
Tab by Mc'Haha
vici_0078@wp.pl

Song: Holy Mountains
Artist: System Of a Down
Tuning: Drop C# (C#, G#, C#, F#, A#, D#)


[0:00 - 0:24]

d#|---------------------------------------------------------------------------------------|
A#|---------------------------------------------------------------------------------------|
F#|---------------------------------------------------------------------------------------|
C#|---0---0------0---0-------0----0--------0---0-------0---0-----0---0-------0---0--------|
G#|--0---0---0--0---0---0---0----0--------0---0---0---0---0-----0---0---0---0---0---------|
C#|-0---0---8--7---7---7---12---12---8-7-5---5---5---3---3---8-7---7---7---2---2--3-2-0~--|(x2)


[0:25 - 0:50]

d#|-------------------------------------------------------------------------------------|
A#|-------------------------------------------------------------------------------------|
F#|-------------------------------------------------------------------------------------|
C#|-0-0-000-8-7-7-777-70-12-12-121212-8-7-5-5-555-50-3-3-333-8-7-7-777-70-2-2-222-3-2-0-|
G#|-0-0-000-8-7-7-777-70-12-12-121212-8-7-5-5-555-50-3-3-333-8-7-7-777-70-2-2-222-3-2-0-|
C#|-0-0-000-8-7-7-777-70-12-12-121212-8-7-5-5-555-50-3-3-333-8-7-7-777-70-2-2-222-3-2-0-|

d#|------|
A#|------|
F#|------|
C#|-12\0-|
G#|-12\0-|
C#|-12\0-|

d#|--------------------------------------------------------------|
A#|--------------------------------------------------------------|
F#|--------------------------------------------------------------|
C#|-0--0---8-7--7--12--12---8-7-5--5--3--3---8-7--7--2---3--2-0~-|
G#|-0--0---8-7--7--12--12---8-7-5--5--3--3---8-7--7--2---3--2-0~-|
C#|-0--0---8-7--7--12--12---8-7-5--5--3--3---8-7--7--2---3--2-0~-|


[0:55 - 1:20]

d#|------------------------------|
A#|------------------------------|
F#|------------------------------|
C#|------------------------------|
G#|------------------------------|
C#|-0----2----3--5--7-8-10-12----|(x2)
"Can, you  feel their..."


[1:20]

d#|----------------------------|
A#|----------------------------|
F#|----------------------------|
C#|-1-1--1-1--1-1--1-1-0-3-1-0-|
G#|-1-1--1-1--1-1--1-1-0-3-1-0-|
C#|-1-1--1-1--1-1--1-1-0-3-1-0-|
"LIAR!, KILLER!..."

d#|--------------------------------------------------|
A#|--------------------------------------------------|
F#|--------------------------------------------------|
C#|-0(x8)-2(x8)-3(x8)-5(x8)-7(x8)-8(x8)-10(x8)-12(x8)|
G#|--------------------------------------------------|
C#|--------------------------------------------------|
"Someone's blank stare..."

d#|----------------------------|
A#|----------------------------|
F#|----------------------------|
C#|-1-1--1-1--1-1--1-1-0-3-1-0-|
G#|-1-1--1-1--1-1--1-1-0-3-1-0-|
C#|-1-1--1-1--1-1--1-1-0-3-1-0-|
"LIAR!, KILLER!..."

d#|--------------------------|
A#|--------------------------|
F#|--------------------------|
C#|-8-8-888-7-5-7-0-0-000-0--|
G#|-8-8-888-7-5-7-0-0-000-0--|
C#|-8-8-888-7-5-7-0-0-000-0--|(x4)
"Freedom..."


[2:02 - 2:14]

d#|--------------------------------------------------------------|
A#|--------------------------------------------------------------|
F#|--------------------------------------------------------------|
C#|-0--0---8-7--7--12--12---8-7-5--5--3--3---8-7--7--2---3--2-0~-|
G#|-0--0---8-7--7--12--12---8-7-5--5--3--3---8-7--7--2---3--2-0~-|
C#|-0--0---8-7--7--12--12---8-7-5--5--3--3---8-7--7--2---3--2-0~-|


[2:15]

d#|------------------------------|
A#|------------------------------|
F#|------------------------------|
C#|------------------------------|
G#|------------------------------|
C#|-0----2----3--5--7-8-10-12----|
"Can, you  hear their..."

d#|----------------------------|
A#|----------------------------|
F#|----------------------------|
C#|-1-1--1-1--1-1--1-1-0-3-1-0-|
G#|-1-1--1-1--1-1--1-1-0-3-1-0-|
C#|-1-1--1-1--1-1--1-1-0-3-1-0-|
"LIAR!, KILLER!..."

d#|--------------------------------------------------|
A#|--------------------------------------------------|
F#|--------------------------------------------------|
C#|-0(x8)-2(x8)-3(x8)-5(x8)-7(x8)-8(x8)-10(x8)-12(x8)|
G#|--------------------------------------------------|
C#|--------------------------------------------------|
"Someone's mouth said..."

d#|----------------------------|
A#|----------------------------|
F#|----------------------------|
C#|-1-1--1-1--1-1--1-1-0-3-1-0-|
G#|-1-1--1-1--1-1--1-1-0-3-1-0-|
C#|-1-1--1-1--1-1--1-1-0-3-1-0-|
"LIAR!, KILLER!..."

d#|--------------------------|
A#|--------------------------|
F#|--------------------------|
C#|-8-8-888-7-5-7-0-0-000-0--|
G#|-8-8-888-7-5-7-0-0-000-0--|
C#|-8-8-888-7-5-7-0-0-000-0--|(x4)
"Freedom..."


[3:08 - 3:25]

d#|---------------------------------------------------------|
A#|---------------------------------------------------------|
F#|---------------------------------------------------------|
C#|---------------------------------------------------------|
G#|-0--1--3--5--0--1--3--5--0-1-3-5-0-1-3-5-0-1-3-5-0-1-3-5-|
C#|---------------------------------------------------------|

Not sure about this part but i think it should be fast picking + slide

d#|------------------------------------------------|
A#|------------------------------------------------|
F#|------------------------------------------------|
C#|------------------------------------------------|
G#|-0/3\0--0/5--0/3\0--0/5--0/3\0--0/5--0/3\0--0/5-|
C#|------------------------------------------------|


[3:26 - 3:59]

d#|----------------------------------------------------------------------------------|
A#|----------------------------------------------------------------------------------|
F#|----------------------------------------------------------------------------------|
C#|-0-0-000-8-7-7-777-7-12-12-121212-8-7-5-5-555-5-3-3-333-8-7-7-777-7-2-2-222-3-2-0-|
G#|-0-0-000-8-7-7-777-7-12-12-121212-8-7-5-5-555-5-3-3-333-8-7-7-777-7-2-2-222-3-2-0-|
C#|-0-0-000-8-7-7-777-7-12-12-121212-8-7-5-5-555-5-3-3-333-8-7-7-777-7-2-2-222-3-2-0-|

d#|------|
A#|------|
F#|------|
C#|-12\0-|
G#|-12\0-|
C#|-12\0-|

d#|----------------------------------------------------------------------------------|
A#|----------------------------------------------------------------------------------|
F#|----------------------------------------------------------------------------------|
c#|-0-0-000-8-7-7-777-7-12-12-121212-8-7-5-5-555-5-3-3-333-8-7-7-777-7-2-2-222-3-2-0-|
G#|-0-0-000-8-7-7-777-7-12-12-121212-8-7-5-5-555-5-3-3-333-8-7-7-777-7-2-2-222-3-2-0-|
C#|-0-0-000-8-7-7-777-7-12-12-121212-8-7-5-5-555-5-3-3-333-8-7-7-777-7-2-2-222-3-2-0-|(x2)


[4:00 - 5:08]

d#|-----------------------------|
A#|-----------------------------|
F#|-----------------------------|
C#|-1-1--111--1111--1-1-0-3-1-0-|
G#|-1-1--111--1111--1-1-0-3-1-0-|
C#|-1-1--111--1111--1-1-0-3-1-0-|
"Honor, Murderer, Sodomizer..."

d#|----------------------------------------------------------------------------------|
A#|----------------------------------------------------------------------------------|
F#|----------------------------------------------------------------------------------|
C#|-0-0-000-8-7-7-777-7-12-12-121212-8-7-5-5-555-5-3-3-333-8-7-7-777-7-2-2-222-3-2-0-|
G#|-0-0-000-8-7-7-777-7-12-12-121212-8-7-5-5-555-5-3-3-333-8-7-7-777-7-2-2-222-3-2-0-|
C#|-0-0-000-8-7-7-777-7-12-12-121212-8-7-5-5-555-5-3-3-333-8-7-7-777-7-2-2-222-3-2-0-|
"They have returned.."

d#|-----------------------------|
A#|-----------------------------|
F#|-----------------------------|
C#|-1-1--111--1111--1-1-0-3-1-0-|
G#|-1-1--111--1111--1-1-0-3-1-0-|
C#|-1-1--111--1111--1-1-0-3-1-0-|
"Honor, Murderer, Sodomizer..."

d#|--------------------------|
A#|--------------------------|
F#|--------------------------|
C#|-8-8-888-7-5-7-0-0-000-0--|
G#|-8-8-888-7-5-7-0-0-000-0--|
C#|-8-8-888-7-5-7-0-0-000-0--|(x4)
"Freedom..."

d#|----------------------------------------------------------------------------------|
A#|----------------------------------------------------------------------------------|
F#|----------------------------------------------------------------------------------|
C#|-0-0-000-8-7-7-777-7-12-12-121212-8-7-5-5-555-5-3-3-333-8-7-7-777-7-2-2-222-3-2-0-|
G#|-0-0-000-8-7-7-777-7-12-12-121212-8-7-5-5-555-5-3-3-333-8-7-7-777-7-2-2-222-3-2-0-|
C#|-0-0-000-8-7-7-777-7-12-12-121212-8-7-5-5-555-5-3-3-333-8-7-7-777-7-2-2-222-3-2-0-|

d#|------|
A#|------|
F#|------|
C#|-12\0-|
G#|-12\0-|
C#|-12\0-|

d#|----------------------------------------------------------------|
A#|----------------------------------------------------------------|
F#|----------------------------------------------------------------|
C#|-0---8--7---12---8-7-5--3---8-7--12\--2---3--2-0~---------------|
G#|-0---8--7---12---8-7-5--3---8-7--12\--2---3--2-0~---------------|
C#|-0---8--7---12---8-7-5--3---8-7--12\--2---3--2-0~---------------|


[5:10]

Play this part slowly, listen to the song for perfect timing

d#|---------------------------------------------------------------------------------------|
A#|---------------------------------------------------------------------------------------|
F#|---------------------------------------------------------------------------------------|
C#|---0---0------0---0---0----0--------0---0-------0---0-----0---0-------0---0------0-----|
G#|--0---0---0--0---0---0----0--------0---0---0---0---0-----0---0---0---0---0--0-0-0-0----|
C#|-0---0---8--7---7---12---12---8-7-5---5---5---3---3---8-7---7---7---2---2--3-2-0---0---|


************************************

| / slide up
| \ slide down
| ~ vibrato

************************************
Suggest correction
comments
print report bad tab
5 comments total. Showing first comments.
0 reply
Jason-Owens(JJ) 10 Jun 28, 2010 02:33 AM

Perfect. For the part your not sure on were he picks really fast i think its just the same thing right before it but just faster picking

0 reply
McHaha 51 Aug 23, 2010 04:26 PM

Maybe it is, but when I played as you said it just didn't sound right so i came up with something like this xd my first tab so, oh well xd

+1 reply
jrkoop4270 31 Oct 01, 2010 02:58 PM

--0---
-0-0--
0---0-
Thats the right way

guest
You may want to rate the tab now too:
select rating
Wanna post a correction for this tab? Suggest correction