Oops, an error
Loading. Please wait.

Hypnotize Tab

version 1
version 1
142,362 views 228 this week
5 commentsread comments
1 2 3 4 5
excellent!
x 17
add to favorites
launch autoscroll
font size
0
reset
how to read this tab
guitar tuner
Autoscroll
slow
fast
+/-
esc
set tempo
stop
Help us to improve Ultimate-Guitar.com Take our survey!
×
Author
Tuning
C# G# C# F# A# D#
 [Intro] clean

A-Part

 D#|----------------|----------------|----------------|----------------| -
 A#|--1---1---------|--3---3---------|--3---3---------|--3---3---------| |
 F#|----0---0-------|----0---0-------|----0---0-------|----0---0-------| |
 C#|----------------|----------------|----------------|----------------| |
 G#|----------------|----------------|----------------|----------------| |
 C#|----------------|----------------|----------------|----------------| |
                                                                      -> 2 Times!
 D#|----------------|----------------|----------------|----------------| |
 A#|--4---4---------|--3---3---------|--1---1---------|--0---0---------| |
 F#|----0---0-------|----0---0-------|----0---0-------|----0---0-------| |
 C#|----------------|----------------|----------------|----------------| |
 G#|----------------|----------------|----------------|----------------| |
 C#|----------------|----------------|----------------|----------------| -/

B-Part

 D#|----------------|----------------|----------------|----------------| -
 A#|--8---8---------|--7---7---------|--10---10-------|--8---8---------| |
 F#|----0---0-------|----0---0-------|-----0----0-----|----0---0-------| |
 C#|----------------|----------------|----------------|----------------| |
 G#|----------------|----------------|----------------|----------------| |
 C#|----------------|----------------|----------------|----------------| |
                                                                      -> 2 Times!
 D#|----------------|----------------|----------------|----------------| |
 A#|--12---12-------|--10---10-------|--13---13-------|--12---12-------| |
 F#|-----0----0-----|-----0----0-----|-----0----0-----|-----0----0-----| |
 C#|----------------|----------------|----------------|----------------| |
 G#|----------------|----------------|----------------|----------------| |
 C#|----------------|----------------|----------------|----------------| -/

C-Part

 D#|----------------|----------------|----------------|----------------|
 A#|--15---15-------|--13---13-------|--12---12-------|--10---10-------|
 F#|-----0----0-----|-----0----0-----|-----0----0-----|-----0----0-----|
 C#|----------------|----------------|----------------|----------------|
 G#|----------------|----------------|----------------|----------------|
 C#|----------------|----------------|----------------|----------------|

 D#|----------------|----------------|----------------|----------------|
 A#|--13---13-------|--12---12-------|--10---10-------|--8---8---------|
 F#|-----0----0-----|-----0----0-----|-----0----0-----|----0---0-------|
 C#|----------------|----------------|----------------|----------------|
 G#|----------------|----------------|----------------|----------------|
 C#|----------------|----------------|----------------|----------------|

 D#|----------------|----------------|----------------|----------------|
 A#|--11---11-------|--10---10-------|--8---8---------|--7---7---------|
 F#|-----0----0-----|-----0----0-----|----0---0-------|----0---0-------|
 C#|----------------|----------------|----------------|----------------|
 G#|----------------|----------------|----------------|----------------|
 C#|----------------|----------------|----------------|----------------|


[Verse] distortion \'00:35

 D#|----------------|----------------|----------------|----------------| -
 A#|----------------|----------------|----------------|----------------| |
 F#|----------------|----------------|----------------|--8--7--8--7----| |
 C#|--5-------------|--5-------------|--5-------------|--8--7--8--7----| |
 G#|--5-------------|--5-------------|--5-------------|--6--5--6--5----| |
 C#|--5-------------|--5-------------|--5-------------|----------------| |
                                                                      -> 8 Times!
 D#|----------------|----------------|----------------|----------------| |
 A#|----------------|----------------|----------------|----------------| |
 F#|----------------|----------------|----------------|--8--7--8-------| |
 C#|--5-------------|--5-------------|--5-------------|--8--7--8-------| |
 G#|--5-------------|--5-------------|--5-------------|--6--5--6-------| |
 C#|--5-------------|--5-------------|--5-------------|----------------| -/


[Refrain] (silent) \'01:00

 D#|----------------|----------------|----------------|----------------|
 A#|--15---15-------|--13---13-------|--12---12-------|--10---10-------|
 F#|-----0----0-----|-----0----0-----|-----0----0-----|-----0----0-----|
 C#|----------------|----------------|----------------|----------------|
 G#|----------------|----------------|----------------|----------------|
 C#|----------------|----------------|----------------|----------------|

 D#|----------------|----------------|----------------|----------------|
 A#|--13---13-------|--12---12-------|--10---10-------|--8---8---------|
 F#|-----0----0-----|-----0----0-----|-----0----0-----|----0---0-------|
 C#|----------------|----------------|----------------|----------------|
 G#|----------------|----------------|----------------|----------------|
 C#|----------------|----------------|----------------|----------------|

 D#|----------------|----------------|----------------|----------------|
 A#|--11---11-------|--10---10-------|--8---8---------|--7---7---------|
 F#|-----0----0-----|-----0----0-----|----0---0-------|----0---0-------|
 C#|----------------|----------------|----------------|----------------|
 G#|----------------|----------------|----------------|----------------|
 C#|----------------|----------------|----------------|----------------|


Vers \'01:09
Refrain (silent) \'01:34


[Interlude] \'01:43

 D#|----------------|----------------|----------------|----------------|
 A#|----------------|----------------|----------------|----------------|
 F#|----------------|----------------|----------------|--8--7--8--7----|
 C#|--5-------------|--5-------------|--5-------------|--8--7--8--7----|
 G#|--5-------------|--5-------------|--5-------------|--6--5--6--5----|
 C#|--5-------------|--5-------------|--5-------------|----------------|
                                                                                
 D#|----------------|----------------|----------------|----------------|
 A#|----------------|----------------|----------------|----------------|
 F#|----------------|----------------|----------------|--8--7--8-------|
 C#|--5-------------|--5-------------|--5-------------|--8--7--8-------|
 G#|--5-------------|--5-------------|--5-------------|--6--5--6-------|
 C#|--5-------------|--5-------------|--5-------------|----------------|


[Refrain] (heavy) 01:49

 D#|----------------|----------------|----------------|----------------|
 A#|----------------|----------------|----------------|----------------|
 F#|----------------|----------------|--8-------------|--8-------------|
 C#|--5-------------|--5-------------|--8-------------|--8-------------|
 G#|--5-------------|--5-------------|--6-------------|--6-------------|
 C#|--5-------------|--5-------------|----------------|----------------|
                                                                                
 D#|----------------|----------------|----------------|----------------|
 A#|----------------|----------------|----------------|----------------|
 F#|--8-------------|--8-------------|--10------------|--10------------|
 C#|--8-------------|--8-------------|--10------------|--10------------|
 G#|--6-------------|--6-------------|---8------------|---8------------|
 C#|----------------|----------------|----------------|----------------|

 D#|----------------|----------------|----------------|----------------|
 A#|----------------|----------------|----------------|----------------|
 F#|----------------|----------------|---7------------|---7------------|
 C#|--8-------------|--8-------------|---7------------|---7------------|
 G#|--8-------------|--8-------------|---5------------|---5------------|
 C#|--8-------------|--8-------------|--(0)-----------|--(0)-----------|


Then begins the [Solo-Part] with 4 Guitars. \'01:58

Guitar 1 (muted)

 D#|----------------|----------------|----------------|----------------|
 A#|----------------|----------------|----------------|----------------|
 F#|----------------|----------------|----------------|----------------|
 C#|--5--5----------|--3-------------|--5--5----------|--3-------------|
 G#|--5--5----------|--3-------------|--5--5----------|--3-------------|
 C#|--5--5----------|--3-------------|--5--5----------|--3-------------|

Guitar 2 (clean) \'02:01
He plays something like this [i\'m not sure ;)] after Guitar 1 plays his part 2 Times

 D#|--15sl<---------|----------------|----------------|----------------|
 A#|--12sl<---------|----------------|----------------|----------------|
 F#|----------------|----------------|----------------|----------------|
 C#|----------------|----------------|----------------|----------------|
 G#|----------------|----------------|----------------|----------------|
 C#|----------------|----------------|----------------|----------------|

Guitar 3 plays this Melody after Guitar 1 plays his part 4 Times(clean) \'02:05

 D#|----------------|----------------|---------------------|----------------|---------------------|
 A#|------------12--|--15-13-12-13---|--12h13p12----12-----|--------12-13---|--12h13p12----12-----|
 F#|--12-----14-----|----------------|-----------14----14--|--12-14---------|-----------14----14--|
 C#|----------------|----------------|---------------------|----------------|---------------------|
 G#|----------------|----------------|---------------------|----------------|---------------------|
 C#|----------------|----------------|---------------------|----------------|---------------------|

Then play The B-Part of The Intro

Guitar 4 plays the A-Part of the Intro after Guitar 1 plays his part 2 Times \'02:05


[Refrain] (heavy) \'02:29

 D#|----------------|----------------|----------------|----------------|
 A#|----------------|----------------|----------------|----------------|
 F#|----------------|----------------|----------------|----------------|
 C#|--5--5----------|--3-------------|--5--5----------|--3-------------|
 G#|--5--5----------|--3-------------|--5--5----------|--3-------------|
 C#|--5--5----------|--3-------------|--5--5----------|--3-------------|

(muted) \'02:38

 D#|----------------|----------------|----------------|----------------|
 A#|----------------|----------------|----------------|----------------|
 F#|----------------|----------------|----------------|----------------|
 C#|--5--5----------|--3-------------|--5--5----------|--3-------------|
 G#|--5--5----------|--3-------------|--5--5----------|--3-------------|
 C#|--5--5----------|--3-------------|--5--5----------|--3-------------|


Refrain (heavy) with Breaks ! \'02:44


[Outro] (slow) \'02:58

 D#|----------------|----------------|----------------|----------------|
 A#|--1---1---------|--3---3---------|--3---3---------|--3---3---------| 
 F#|----0---0-------|----0---0-------|----0---0-------|----0---0-------|
 C#|----------------|----------------|----------------|----------------|
 G#|----------------|----------------|----------------|----------------|
 C#|----------------|----------------|----------------|----------------|  
 
 D#|----------------|----------------|----------------|----------------|
 A#|--4---4---------|--3---3---------|--1---1h3p1-----|--0-------------|
 F#|----0---0-------|----0---0-------|----0-----------|--0-------------|
 C#|----------------|----------------|----------------|----------------|
 G#|----------------|----------------|----------------|----------------|
 C#|----------------|----------------|----------------|----------------|

I hope, somebody out there can read this Tab



************************************

p = Pull Off
h = Hammer On
sl< = slide down

************************************
Suggest correction
What's this?
You can suggest a correction to this tab. Community and Mods will review your correction and vote to approve or reject it.
comments
print report bad tab
5 comments total. Showing first comments.
+1 reply
Vigil4nt_Kill3r 20 wrote on January 3 2007, 09:30 pm

good tab... but i find it a little off at the verse

0 reply
zacky.v 93 wrote on May 15 2007, 09:56 pm

could be better

0 reply
directedvader 11 wrote on January 4 2008, 09:55 pm

i found that its easier to play with out the 0's after every tab in the intro

guest
You may want to rate the tab now too:
select rating
Please do not post tabs as comments. Select "correction" instead!