Oops, an error
Loading. Please wait.
We have an official Hypnotize tab made by UG professional guitarists. Check out the tab »
×
2,585 views 3 this week
4 commentsread comments
1 2 3 4 5
x 4
add to favorites
×
Save as Personal and add changes to this tab that will be seen only by you. Learn more ›
×
You can save this tab as Personal to edit and correct it or add notes. All changes will be seen only by you. Learn more »
launch autoscroll
font size
0
reset
guitar tuner
backing track
0:00
0:00
edit
Autoscroll
slow
fast
+/-
esc
set tempo
stop
Difficulty
Intro:
Gb|11-11-11-11-11-11-11-11-----------||
Db|----------------------------------||
Ab|----------------------------------||(x8)
Db|----------------------------------||

Gb|----------------------------------||
Db|-4-4-4-4-4-4-4-4------------------||
Ab|----------------------------------||(x5)
Db|----------------------------------||

Verse:
Gb|--------------------------------||
Db|--------------------------------||
Ab|--------------------------------||(x8)
Db|-4---4--4-4---4/12-12-12-12-----||

Transition Riff:
Gb|11-11-11-11-11-11-11-11---------||
Db|--------------------------------||
Ab|--------------------------------||(x6)
Db|--------------------------------||

Verse:
Gb|--------------------------------||
Db|--------------------------------||
Ab|--------------------------------||(x10)
Db|-4---4--4-4---4/12-12-12-12-----||

Transition Riff:

Breakdown:
Gb|--------------------------------------------||
Db|--------------------------------------------||
Ab|--------------------------------------------||
Db|4---4---4-4---4/12-12-12-12-----------------||

Gb|------------------------------------------------------------------||
Db|------------------------------------------------------------------||
Ab|------------------------------------------------------------------||
Db|88888888-10101010(x4)-12121212(x2)-14141414(x2)-15151515(x2)------||

Bridge
Gb|-----------------------||
Db|-----------------------||
Ab|-----------------------||
Db|3-5-0------------||(x12||


Gb|------------------------------------------------------------------||
Db|------------------------------------------------------------------||
Ab|------------------------------------------------------------------||
Db|8888----10101010----10101010----12121212--------------------------||

BRIDGE:

Outro
Gb|------------------------------------------------------------------||
Db|------------------------------------------------------------------||
Ab|------------------------------------------------------------------||
Db|8888----10101010----10101010----12121212---7*----4*---------------||

I did this tab in 10 minutes flat now cmon the last tab that has a rateing of 7 SUCKS 
cmon 14 on G wata retard!!!!
Suggest correction
Creating personal tab
Creating personal tab
You can edit any tab online and save it as your Personal.

You can edit, replace or remove any tab part or add personal notes – all changes will be seen only by you.

Personal tabs can be accessed anytime from any device, even offline.
Learn more »
comments
print report bad tab
4 comments total. Showing first comments.
0 reply
jelloman 10 Dec 21, 2005 06:23 AM

nice try but it's not that accurate, i couldn't tab it, but u sure do sound sure of urself

0 reply
harl91 373 Dec 22, 2005 04:04 AM

hey man, you shouldn't just call people retards just because of the way they did a tab. Thats my tab, and that how i play it, and if you think differently, then tell it to me, dont go and post a NEW tab and write that im a retard on the bottem

0 reply
arvin23 10 Jan 31, 2006 04:11 PM

this is the correct intro of hypnotize
G|--------------------------------|
D|--------------------------------|
A|--------------------------------|
E|---1414141414141414-----00000000|8x

guest
Wanna post a correction for this tab? Suggest correction