Oops, an error
Loading. Please wait.

Jet Pilot Tab

version 1
version 1

Whole song

Interactive

26,757 views 33 this week
9 commentsread comments
1 2 3 4 5
x 13
add to favorites
launch autoscroll
font size
0
reset
how to read this tab
guitar tuner
Autoscroll
slow
fast
+/-
esc
set tempo
stop
Help us to improve Ultimate-Guitar.com Take our survey!
×
Author
Band:System Of A Down
Song:Jet Pilot
Album:Toxicity
Tuning:CGCFAD
Tabbed By:Glenn

""""=palm mute


Intro/Chorus
-----------------|-----------------------------------
-----------------|-----------------------------------
-----------------|-----------------------------------
-8-0-0-0-1s6-0-0-|-8-0-0-0-1s6-0-0-8-0-0-0-0-0-0-0-0-
-6-0-0-0-1s6-0-0-|-6-0-0-0-1s6-0-0-6-0-0-0-0-0-0-0-0-
---0-0-0-1s6-0-0-|---0-0-0-1s6-0-0---0-0-0-0-0-0-0-0-
   """""     """     """""     """   """""""""""""""

---------------------------------|---------------------------------
---------------------------------|---------------------------------
---------------------------------|---------------------------------
-1-0-0-0-1s6-0-0-1s8-0-0-1s6-0-0-|-8-0-0-0-1s6-0-0-1s8-0-0-1s6-0-0-
-1-0-0-0-1s6-0-0-1s8-0-0-1s6-0-0-|-6-0-0-0-1s6-0-0-1s8-0-0-1s6-0-0-
-1-0-0-0-1s6-0-0-1s8-0-0-1s6-0-0-|---0-0-0-1s6-0-0-1s8-0-0-1s6-0-0-
   """""     """     """     """     """""     """     """     """

Bridge
---------------------
---------------------
---------------------
---------------------
-0-8-7-5-7-5h7p5-3-1-
---------------------

Verse
-------------|-----------------
-------------|-----------------
-------------|-----------------
-7-8-7-8-7-5-|-7-8-7-8-7-5-5-5-
-7-8-7-8-7-5-|-7-8-7-8-7-5-5-5-
-7-8-7-8-7-5-|-7-8-7-8-7-5-5-5-
 """""""""""   """""""""""""""

Solo
------------------------------------------
----------------------5---6-5-----6-------
------------------7-5---7-----7-5---7-5---
-----5-7-8-7-10-8-----------------------7-
-0-8--------------------------------------
------------------------------------------
                          """""""""""""""
Suggest correction
comments
print report bad tab
9 comments total. Showing first comments.
0 reply
Yoner 10 Nov 19, 2006 06:14 PM

good tab. this song is kinda harder than i thought it would be though.

+1 reply
nathaniel6393 10 Jan 21, 2007 09:51 AM

Good Tab

0 reply
One Inch Man 10 Apr 01, 2007 01:04 PM

very good tab. but i think the rythm goes this way

-----------------|-----------------------------------
-----------------|-----------------------------------
-----------------|-----------------------------------
-8-0-0-0-0-1s6-0-|-8-0-0-0-0-1s6-0-8-0-0-0-0-0-0-0-0-
-6-0-0-0-0-1s6-0-|-6-0-0-0-0-1s6-0-6-0-0-0-0-0-0-0-0-
---0-0-0-0-1s6-0-|---0-0-0-0-1s6-0---0-0-0-0-0-0-0-0-

guest
You may want to rate the tab now too:
select rating
Wanna post a correction for this tab? Suggest correction