Oops, an error
Loading. Please wait.
We have an official Kill Rock N Roll tab made by UG professional guitarists. Check out the tab »
×
6,189 views 1 this week
6 commentsread comments
1 2 3 4 5
x 9
add to favorites
×
Save as Personal and add changes to this tab that will be seen only by you. Learn more ›
×
You can save this tab as Personal to edit and correct it or add notes. All changes will be seen only by you. Learn more »
launch autoscroll
font size
0
reset
guitar tuner
backing track
0:00
0:00
edit
Autoscroll
slow
fast
+/-
esc
set tempo
stop
This is my first ever tab so i hope you like it. This song isn't
that hard, just play with the song, you should hear that my tab
sounds like it. yea well i play in regular EADG tuning and it
sounds good.

Band- system of a down
Bassist= Shavo Odadjian
Song-Kill Rock N Roll
Aim- Skater Rocks118

Intro-
No bass in intro. Bass comes in at about 21 seconds in the song.


verse- 
G|------------------------------------------------------------------------|
D|------------------------------------------------------------------------|
A|------------------------------------------------------------------------|
E|-3-33-----5-55------2-22----4-44---5-55555555---------------------------|

chorus-
G|------------------------------------------------------------------------|
D|------------------------------------------------------------------------|
A|------------------------------------------------------------------------|
E|-3333333333-0000000000-5555555555-77777-88888---------------------------|

Bridge-
G|------------------------------------------------------------------------|
D|------------------------------------------------------------------------|
A|------------------------------------------------------------------------|
E|---3/----8-7/-2-3-------------------------------------------------------|


During Guitar solo-Plays this about 5 times
G|------------------------------------------------------------------------|
D|------------------------------------------------------------------------|
A|------------------------------------------------------------------------|
E|----------4-4--4-4-------3-3--3-3---------------------------------------|

outro-
G|------------------------------------------------------------------------|
D|------------------------------------------------------------------------|
A|------------------------------------------------------------------------|
E|--3-5-2-5---------------------------------------------------------------|

order-
verse- 2x
chorus- 1x
verse- 2x
courus-1x
bridge-2x
during guitar solo- 5x
chorus- 1x
bridge- 2x
verse- 1x
outro-3x

            
            
Suggest correction
Creating personal tab
Creating personal tab
You can edit any tab online and save it as your Personal.

You can edit, replace or remove any tab part or add personal notes – all changes will be seen only by you.

Personal tabs can be accessed anytime from any device, even offline.
Learn more »
comments
print report bad tab
6 comments total. Showing first comments.
-1 reply
pommegrenade 30 Mar 03, 2006 03:28 PM

NICE TAB.

0 reply
consolean2 10 Jun 09, 2006 12:10 AM

start a bit weird because SOAD usualy follow the scale (Db minor) but it's al over the place

0 reply
consolean2 10 Jun 09, 2006 12:11 AM

all*

guest
You may want to rate the tab now too:
select rating
Wanna post a correction for this tab? Suggest correction